  0
SECTION
  2
HEADER
  9
$ACADVER
  1
AC1012
  9
$DWGCODEPAGE
  3
ascii
  9
$INSBASE
 10
0.0
 20
0.0
 30
0.0
  9
$EXTMIN
 10
1.000000000000000E+20
 20
1.000000000000000E+20
 30
1.000000000000000E+20
  9
$EXTMAX
 10
-1.000000000000000E+20
 20
-1.000000000000000E+20
 30
-1.000000000000000E+20
  9
$LIMMIN
 10
0.0
 20
0.0
  9
$LIMMAX
 10
12.0
 20
9.0
  9
$ORTHOMODE
 70
     0
  9
$REGENMODE
 70
     1
  9
$FILLMODE
 70
     1
  9
$QTEXTMODE
 70
     0
  9
$MIRRTEXT
 70
     1
  9
$DRAGMODE
 70
     2
  9
$LTSCALE
 40
1.0
  9
$OSMODE
 70
    37
  9
$ATTMODE
 70
     1
  9
$TEXTSIZE
 40
0.2
  9
$TRACEWID
 40
0.05
  9
$TEXTSTYLE
  7
STANDARD
  9
$CLAYER
  8
0
  9
$CELTYPE
  6
BYLAYER
  9
$CECOLOR
 62
   256
  9
$CELTSCALE
 40
1.0
  9
$DELOBJ
 70
     1
  9
$DISPSILH
 70
     0
  9
$DIMSCALE
 40
1.0
  9
$DIMASZ
 40
0.18
  9
$DIMEXO
 40
0.0625
  9
$DIMDLI
 40
0.38
  9
$DIMRND
 40
0.0
  9
$DIMDLE
 40
0.0
  9
$DIMEXE
 40
0.18
  9
$DIMTP
 40
0.0
  9
$DIMTM
 40
0.0
  9
$DIMTXT
 40
0.18
  9
$DIMCEN
 40
0.09
  9
$DIMTSZ
 40
0.0
  9
$DIMTOL
 70
     0
  9
$DIMLIM
 70
     0
  9
$DIMTIH
 70
     1
  9
$DIMTOH
 70
     1
  9
$DIMSE1
 70
     0
  9
$DIMSE2
 70
     0
  9
$DIMTAD
 70
     0
  9
$DIMZIN
 70
     0
  9
$DIMBLK
  1

  9
$DIMASO
 70
     1
  9
$DIMSHO
 70
     1
  9
$DIMPOST
  1

  9
$DIMAPOST
  1

  9
$DIMALT
 70
     0
  9
$DIMALTD
 70
     2
  9
$DIMALTF
 40
25.4
  9
$DIMLFAC
 40
1.0
  9
$DIMTOFL
 70
     0
  9
$DIMTVP
 40
0.0
  9
$DIMTIX
 70
     0
  9
$DIMSOXD
 70
     0
  9
$DIMSAH
 70
     0
  9
$DIMBLK1
  1

  9
$DIMBLK2
  1

  9
$DIMSTYLE
  2
STANDARD
  9
$DIMCLRD
 70
     0
  9
$DIMCLRE
 70
     0
  9
$DIMCLRT
 70
     0
  9
$DIMTFAC
 40
1.0
  9
$DIMGAP
 40
0.09
  9
$DIMJUST
 70
     0
  9
$DIMSD1
 70
     0
  9
$DIMSD2
 70
     0
  9
$DIMTOLJ
 70
     1
  9
$DIMTZIN
 70
     0
  9
$DIMALTZ
 70
     0
  9
$DIMALTTZ
 70
     0
  9
$DIMFIT
 70
     3
  9
$DIMUPT
 70
     0
  9
$DIMUNIT
 70
     2
  9
$DIMDEC
 70
     4
  9
$DIMTDEC
 70
     4
  9
$DIMALTU
 70
     2
  9
$DIMALTTD
 70
     2
  9
$DIMTXSTY
  7
STANDARD
  9
$DIMAUNIT
 70
     0
  9
$LUNITS
 70
     2
  9
$LUPREC
 70
     4
  9
$SKETCHINC
 40
0.1
  9
$FILLETRAD
 40
0.5
  9
$AUNITS
 70
     0
  9
$AUPREC
 70
     0
  9
$MENU
  1
.
  9
$ELEVATION
 40
0.0
  9
$PELEVATION
 40
0.0
  9
$THICKNESS
 40
0.0
  9
$LIMCHECK
 70
     0
  9
$CHAMFERA
 40
0.5
  9
$CHAMFERB
 40
0.5
  9
$CHAMFERC
 40
1.0
  9
$CHAMFERD
 40
0.0
  9
$SKPOLY
 70
     0
  9
$TDCREATE
 40
2455196.368958334
  9
$TDUPDATE
 40
2455196.368958345
  9
$TDINDWG
 40
0.0000000116
  9
$TDUSRTIMER
 40
0.0000000116
  9
$USRTIMER
 70
     1
  9
$ANGBASE
 50
0.0
  9
$ANGDIR
 70
     0
  9
$PDMODE
 70
     0
  9
$PDSIZE
 40
0.0
  9
$PLINEWID
 40
0.0
  9
$COORDS
 70
     1
  9
$SPLFRAME
 70
     0
  9
$SPLINETYPE
 70
     6
  9
$SPLINESEGS
 70
     8
  9
$ATTDIA
 70
     0
  9
$ATTREQ
 70
     1
  9
$HANDLING
 70
     1
  9
$HANDSEED
  5
CC
  9
$SURFTAB1
 70
     6
  9
$SURFTAB2
 70
     6
  9
$SURFTYPE
 70
     6
  9
$SURFU
 70
     6
  9
$SURFV
 70
     6
  9
$UCSNAME
  2

  9
$UCSORG
 10
0.0
 20
0.0
 30
0.0
  9
$UCSXDIR
 10
1.0
 20
0.0
 30
0.0
  9
$UCSYDIR
 10
0.0
 20
1.0
 30
0.0
  9
$PUCSNAME
  2

  9
$PUCSORG
 10
0.0
 20
0.0
 30
0.0
  9
$PUCSXDIR
 10
1.0
 20
0.0
 30
0.0
  9
$PUCSYDIR
 10
0.0
 20
1.0
 30
0.0
  9
$USERI1
 70
     0
  9
$USERI2
 70
     0
  9
$USERI3
 70
     0
  9
$USERI4
 70
     0
  9
$USERI5
 70
     0
  9
$USERR1
 40
0.0
  9
$USERR2
 40
0.0
  9
$USERR3
 40
0.0
  9
$USERR4
 40
0.0
  9
$USERR5
 40
0.0
  9
$WORLDVIEW
 70
     1
  9
$SHADEDGE
 70
     3
  9
$SHADEDIF
 70
    70
  9
$TILEMODE
 70
     1
  9
$MAXACTVP
 70
    64
  9
$PINSBASE
 10
0.0
 20
0.0
 30
0.0
  9
$PLIMCHECK
 70
     0
  9
$PEXTMIN
 10
1.000000000000000E+20
 20
1.000000000000000E+20
 30
1.000000000000000E+20
  9
$PEXTMAX
 10
-1.000000000000000E+20
 20
-1.000000000000000E+20
 30
-1.000000000000000E+20
  9
$PLIMMIN
 10
0.0
 20
0.0
  9
$PLIMMAX
 10
12.0
 20
9.0
  9
$UNITMODE
 70
     0
  9
$VISRETAIN
 70
     1
  9
$PLINEGEN
 70
     0
  9
$PSLTSCALE
 70
     1
  9
$TREEDEPTH
 70
  3020
  9
$PICKSTYLE
 70
     1
  9
$CMLSTYLE
  2
STANDARD
  9
$CMLJUST
 70
     0
  9
$CMLSCALE
 40
1.0
  9
$SAVEIMAGES
 70
     1
  0
ENDSEC
  0
SECTION
  2
CLASSES
  0
CLASS
  1
ACDBDICTIONARYWDFLT
  2
AcDbDictionaryWithDefault
  3
ObjectDBX Classes
 90
    32768
280
     0
281
     0
  0
CLASS
  1
VISUALSTYLE
  2
AcDbVisualStyle
  3
ObjectDBX Classes
 90
     4095
280
     0
281
     0
  0
CLASS
  1
XRECORD
  2
AcDbXrecord
  3
AutoCAD 2000
 90
    32768
280
     0
281
     0
  0
CLASS
  1
LWPOLYLINE
  2
AcDbPolyline
  3
AutoCAD 2000
 90
    32768
280
     0
281
     1
  0
CLASS
  1
HATCH
  2
AcDbHatch
  3
AutoCAD 2000
 90
    32768
280
     0
281
     1
  0
CLASS
  1
ACDBPLACEHOLDER
  2
AcDbPlaceHolder
  3
ObjectDBX Classes
 90
        0
280
     0
281
     0
  0
CLASS
  1
LAYOUT
  2
AcDbLayout
  3
ObjectDBX Classes
 90
        0
280
     0
281
     0
  0
ENDSEC
  0
SECTION
  2
TABLES
  0
TABLE
  2
VPORT
  5
8
330
0
100
AcDbSymbolTable
 70
     1
  0
VPORT
  5
29
330
8
100
AcDbSymbolTableRecord
100
AcDbViewportTableRecord
  2
*ACTIVE
 70
     0
 10
0.0
 20
0.0
 11
1.0
 21
1.0
 12
0.0
 22
0.0
 13
0.0
 23
0.0
 14
0.5
 24
0.5
 15
0.5
 25
0.5
 16
0.0
 26
0.0
 36
1.0
 17
145.1897692743177
 27
104.7705904662519
 37
0.0
 40
210.4589549752248
 41
2.110170504211859
 42
50.0
 43
0.0
 44
0.0
 50
0.0
 51
0.0
 71
     0
 72
   100
 73
     1
 74
     3
 75
     0
 76
     0
 77
     0
 78
     0
  0
ENDTAB
  0
TABLE
  2
LTYPE
  5
5
330
0
100
AcDbSymbolTable
 70
     1
  0
LTYPE
  5
14
330
5
100
AcDbSymbolTableRecord
100
AcDbLinetypeTableRecord
  2
BYBLOCK
 70
     0
  3

 72
    65
 73
     0
 40
0.0
  0
LTYPE
  5
15
330
5
100
AcDbSymbolTableRecord
100
AcDbLinetypeTableRecord
  2
BYLAYER
 70
     0
  3

 72
    65
 73
     0
 40
0.0
  0
LTYPE
  5
16
330
5
100
AcDbSymbolTableRecord
100
AcDbLinetypeTableRecord
  2
CONTINUOUS
 70
     0
  3
Solid line
 72
    65
 73
     0
 40
0.0
  0
ENDTAB
  0
TABLE
  2
LAYER
  5
2
330
0
100
AcDbSymbolTable
 70
    21
  0
LAYER
  5
10
330
2
100
AcDbSymbolTableRecord
100
AcDbLayerTableRecord
  2
0
 70
     0
 62
     7
  6
CONTINUOUS
  0
LAYER
  5
3B
330
2
100
AcDbSymbolTableRecord
100
AcDbLayerTableRecord
  2
SSL_1_TRACES
 70
     1
 62
     7
  6
CONTINUOUS
  0
LAYER
  5
3C
330
2
100
AcDbSymbolTableRecord
100
AcDbLayerTableRecord
  2
SSL_1_PADS
 70
     1
 62
     7
  6
CONTINUOUS
  0
LAYER
  5
3D
330
2
100
AcDbSymbolTableRecord
100
AcDbLayerTableRecord
  2
SSL1_TEXT
 70
     1
 62
     7
  6
CONTINUOUS
  0
LAYER
  5
3E
330
2
100
AcDbSymbolTableRecord
100
AcDbLayerTableRecord
  2
SSL_1_COMPONENTS
 70
     1
 62
     7
  6
CONTINUOUS
  0
LAYER
  5
3F
330
2
100
AcDbSymbolTableRecord
100
AcDbLayerTableRecord
  2
SSL2_TRACES
 70
     1
 62
     7
  6
CONTINUOUS
  0
LAYER
  5
40
330
2
100
AcDbSymbolTableRecord
100
AcDbLayerTableRecord
  2
SSL2_PADS
 70
     1
 62
     7
  6
CONTINUOUS
  0
LAYER
  5
41
330
2
100
AcDbSymbolTableRecord
100
AcDbLayerTableRecord
  2
SSL2_TEXT
 70
     1
 62
     7
  6
CONTINUOUS
  0
LAYER
  5
42
330
2
100
AcDbSymbolTableRecord
100
AcDbLayerTableRecord
  2
SSL2_COMPONENTS
 70
     1
 62
     7
  6
CONTINUOUS
  0
LAYER
  5
43
330
2
100
AcDbSymbolTableRecord
100
AcDbLayerTableRecord
  2
TURBO_TRACES
 70
     1
 62
     7
  6
CONTINUOUS
  0
LAYER
  5
44
330
2
100
AcDbSymbolTableRecord
100
AcDbLayerTableRecord
  2
TURBO_PADS
 70
     1
 62
     7
  6
CONTINUOUS
  0
LAYER
  5
45
330
2
100
AcDbSymbolTableRecord
100
AcDbLayerTableRecord
  2
TURBO_COMPONENTS
 70
     1
 62
     7
  6
CONTINUOUS
  0
LAYER
  5
46
330
2
100
AcDbSymbolTableRecord
100
AcDbLayerTableRecord
  2
CONTROLBRD_TRACES
 70
     1
 62
     7
  6
CONTINUOUS
  0
LAYER
  5
47
330
2
100
AcDbSymbolTableRecord
100
AcDbLayerTableRecord
  2
CONTROL_BOARD_PADS
 70
     1
 62
     7
  6
CONTINUOUS
  0
LAYER
  5
48
330
2
100
AcDbSymbolTableRecord
100
AcDbLayerTableRecord
  2
CONTROL_BOARD_COMPONENTS
 70
     1
 62
     7
  6
CONTINUOUS
  0
LAYER
  5
49
330
2
100
AcDbSymbolTableRecord
100
AcDbLayerTableRecord
  2
LED_BOARD_PADS_AND_TRACES
 70
     1
 62
     7
  6
CONTINUOUS
  0
LAYER
  5
4A
330
2
100
AcDbSymbolTableRecord
100
AcDbLayerTableRecord
  2
LED_BOARDCOMPONENTS
 70
     1
 62
     7
  6
CONTINUOUS
  0
LAYER
  5
4B
330
2
100
AcDbSymbolTableRecord
100
AcDbLayerTableRecord
  2
LASER_MASK
 70
     0
 62
     7
  6
CONTINUOUS
  0
LAYER
  5
C8
330
2
100
AcDbSymbolTableRecord
100
AcDbLayerTableRecord
  2
DRILL_MASK
 70
     1
 62
     7
  6
CONTINUOUS
  0
LAYER
  5
C9
330
2
100
AcDbSymbolTableRecord
100
AcDbLayerTableRecord
  2
BLOCK_LAYER
 70
     1
 62
     7
  6
CONTINUOUS
  0
LAYER
  5
CA
330
2
100
AcDbSymbolTableRecord
100
AcDbLayerTableRecord
  2
COGWHEELS
 70
     1
 62
     7
  6
CONTINUOUS
  0
ENDTAB
  0
TABLE
  2
STYLE
  5
3
330
0
100
AcDbSymbolTable
 70
     1
  0
STYLE
  5
11
330
3
100
AcDbSymbolTableRecord
100
AcDbTextStyleTableRecord
  2
STANDARD
 70
     0
 40
0.0
 41
1.0
 50
0.0
 71
     0
 42
0.2
  3
txt
  4

  0
ENDTAB
  0
TABLE
  2
VIEW
  5
6
330
0
100
AcDbSymbolTable
 70
     0
  0
ENDTAB
  0
TABLE
  2
UCS
  5
7
330
0
100
AcDbSymbolTable
 70
     0
  0
ENDTAB
  0
TABLE
  2
APPID
  5
9
330
0
100
AcDbSymbolTable
 70
     1
  0
APPID
  5
12
330
9
100
AcDbSymbolTableRecord
100
AcDbRegAppTableRecord
  2
ACAD
 70
     0
  0
ENDTAB
  0
TABLE
  2
DIMSTYLE
  5
A
330
0
100
AcDbSymbolTable
 70
     1
  0
DIMSTYLE
105
27
330
A
100
AcDbSymbolTableRecord
100
AcDbDimStyleTableRecord
  2
STANDARD
 70
     0
  3

  4

  5

  6

  7

 40
1.0
 41
0.18
 42
0.0625
 43
0.38
 44
0.18
 45
0.0
 46
0.0
 47
0.0
 48
0.0
140
0.18
141
0.09
142
0.0
143
25.4
144
1.0
145
0.0
146
1.0
147
0.09
 71
     0
 72
     0
 73
     1
 74
     1
 75
     0
 76
     0
 77
     0
 78
     0
170
     0
171
     2
172
     0
173
     0
174
     0
175
     0
176
     0
177
     0
178
     0
270
     2
271
     4
272
     4
273
     2
274
     2
340
11
275
     0
280
     0
281
     0
282
     0
283
     1
284
     0
285
     0
286
     0
287
     3
288
     0
  0
ENDTAB
  0
TABLE
  2
BLOCK_RECORD
  5
1
330
0
100
AcDbSymbolTable
 70
    13
  0
BLOCK_RECORD
  5
1F
330
1
100
AcDbSymbolTableRecord
100
AcDbBlockTableRecord
  2
*MODEL_SPACE
  0
BLOCK_RECORD
  5
1B
330
1
100
AcDbSymbolTableRecord
100
AcDbBlockTableRecord
  2
*PAPER_SPACE
  0
BLOCK_RECORD
  5
4D
330
1
100
AcDbSymbolTableRecord
100
AcDbBlockTableRecord
  2
BLOCK_2
  0
BLOCK_RECORD
  5
57
330
1
100
AcDbSymbolTableRecord
100
AcDbBlockTableRecord
  2
BLOCK_3
  0
BLOCK_RECORD
  5
65
330
1
100
AcDbSymbolTableRecord
100
AcDbBlockTableRecord
  2
BLOCK_4
  0
BLOCK_RECORD
  5
7B
330
1
100
AcDbSymbolTableRecord
100
AcDbBlockTableRecord
  2
BLOCK_5
  0
BLOCK_RECORD
  5
88
330
1
100
AcDbSymbolTableRecord
100
AcDbBlockTableRecord
  2
BLOCK_6
  0
BLOCK_RECORD
  5
99
330
1
100
AcDbSymbolTableRecord
100
AcDbBlockTableRecord
  2
BLOCK_7
  0
BLOCK_RECORD
  5
9E
330
1
100
AcDbSymbolTableRecord
100
AcDbBlockTableRecord
  2
BLOCK_8
  0
BLOCK_RECORD
  5
A3
330
1
100
AcDbSymbolTableRecord
100
AcDbBlockTableRecord
  2
BLOCK_9
  0
BLOCK_RECORD
  5
A8
330
1
100
AcDbSymbolTableRecord
100
AcDbBlockTableRecord
  2
BLOCK_10
  0
BLOCK_RECORD
  5
AE
330
1
100
AcDbSymbolTableRecord
100
AcDbBlockTableRecord
  2
BLOCK_11
  0
BLOCK_RECORD
  5
B5
330
1
100
AcDbSymbolTableRecord
100
AcDbBlockTableRecord
  2
BLOCK_12
  0
BLOCK_RECORD
  5
BF
330
1
100
AcDbSymbolTableRecord
100
AcDbBlockTableRecord
  2
BLOCK_13
  0
ENDTAB
  0
ENDSEC
  0
SECTION
  2
BLOCKS
  0
BLOCK
  5
20
330
1F
100
AcDbEntity
  8
0
100
AcDbBlockBegin
  2
*MODEL_SPACE
 70
     0
 71
     0
 10
0.0
 20
0.0
 30
0.0
  3
*MODEL_SPACE
  1

  0
ENDBLK
  5
21
330
1F
100
AcDbEntity
  8
0
100
AcDbBlockEnd
  0
BLOCK
  5
1C
330
1B
100
AcDbEntity
 67
     1
  8
0
100
AcDbBlockBegin
  2
*PAPER_SPACE
 70
     0
 71
     0
 10
0.0
 20
0.0
 30
0.0
  3
*PAPER_SPACE
  1

  0
ENDBLK
  5
1D
330
1B
100
AcDbEntity
 67
     1
  8
0
100
AcDbBlockEnd
  0
BLOCK
  5
4F
330
4D
100
AcDbEntity
  8
0
100
AcDbBlockBegin
  2
BLOCK_2
 70
     0
 71
     0
 10
0.0
 20
0.0
 30
0.0
  3
BLOCK_2
  1

  0
SPLINE
  5
51
330
4D
100
AcDbEntity
  8
LASER_MASK
 62
   250
100
AcDbSpline
210
0.0
220
0.0
230
1.0
 70
    11
 71
     3
 72
    17
 73
    13
 74
     0
 42
0.0000000001
 43
0.0000000001
 40
0.0
 40
0.0
 40
0.0
 40
0.0
 40
1.0
 40
1.0
 40
1.0
 40
2.0
 40
2.0
 40
2.0
 40
3.0
 40
3.0
 40
3.0
 40
4.0
 40
4.0
 40
4.0
 40
4.0
 10
29.87916059991383
 20
101.903924621852
 30
0.0
 10
29.87916059991383
 20
98.9969511336839
 30
0.0
 10
27.52409177257121
 20
96.64188230634129
 30
0.0
 10
24.61711828440314
 20
96.64188230634129
 30
0.0
 10
21.71014479623507
 20
96.64188230634129
 30
0.0
 10
19.35438694934087
 20
98.9969511336839
 30
0.0
 10
19.35438694934087
 20
101.903924621852
 30
0.0
 10
19.35438694934087
 20
104.8100368355805
 30
0.0
 10
21.71014479623507
 20
107.1663114471384
 30
0.0
 10
24.61711828440314
 20
107.1663114471384
 30
0.0
 10
27.52409177257121
 20
107.1663114471384
 30
0.0
 10
29.87916059991383
 20
104.8100368355805
 30
0.0
 10
29.87916059991383
 20
101.903924621852
 30
0.0
  0
SPLINE
  5
52
330
4D
100
AcDbEntity
  8
LASER_MASK
 62
   250
100
AcDbSpline
210
0.0
220
0.0
230
1.0
 70
    11
 71
     3
 72
    17
 73
    13
 74
     0
 42
0.0000000001
 43
0.0000000001
 40
0.0
 40
0.0
 40
0.0
 40
0.0
 40
1.0
 40
1.0
 40
1.0
 40
2.0
 40
2.0
 40
2.0
 40
3.0
 40
3.0
 40
3.0
 40
4.0
 40
4.0
 40
4.0
 40
4.0
 10
225.8795570496371
 20
101.9053026609552
 30
0.0
 10
225.8795570496371
 20
98.99832917278708
 30
0.0
 10
223.5237992027429
 20
96.64326034544447
 30
0.0
 10
220.6175147341264
 20
96.64326034544447
 30
0.0
 10
217.7105412459583
 20
96.64326034544447
 30
0.0
 10
215.3547833990641
 20
98.99832917278708
 30
0.0
 10
215.3547833990641
 20
101.9053026609552
 30
0.0
 10
215.3547833990641
 20
104.8117593844595
 30
0.0
 10
217.7105412459583
 20
107.1678617411295
 30
0.0
 10
220.6175147341264
 20
107.1678617411295
 30
0.0
 10
223.5237992027429
 20
107.1678617411295
 30
0.0
 10
225.8795570496371
 20
104.8117593844595
 30
0.0
 10
225.8795570496371
 20
101.9053026609552
 30
0.0
  0
SPLINE
  5
53
330
4D
100
AcDbEntity
  8
LASER_MASK
 62
   250
100
AcDbSpline
210
0.0
220
0.0
230
1.0
 70
    11
 71
     3
 72
    17
 73
    13
 74
     0
 42
0.0000000001
 43
0.0000000001
 40
0.0
 40
0.0
 40
0.0
 40
0.0
 40
1.0
 40
1.0
 40
1.0
 40
2.0
 40
2.0
 40
2.0
 40
3.0
 40
3.0
 40
3.0
 40
4.0
 40
4.0
 40
4.0
 40
4.0
 10
274.879526970902
 20
101.903924621852
 30
0.0
 10
274.879526970902
 20
98.9969511336839
 30
0.0
 10
272.5237691240078
 20
96.64188230634129
 30
0.0
 10
269.6174846553913
 20
96.64188230634129
 30
0.0
 10
266.7105111672232
 20
96.64188230634129
 30
0.0
 10
264.3544088105532
 20
98.9969511336839
 30
0.0
 10
264.3544088105532
 20
101.903924621852
 30
0.0
 10
264.3544088105532
 20
104.8103813453563
 30
0.0
 10
266.7105111672232
 20
107.1664837020263
 30
0.0
 10
269.6174846553913
 20
107.1664837020263
 30
0.0
 10
272.5237691240078
 20
107.1664837020263
 30
0.0
 10
274.879526970902
 20
104.8103813453563
 30
0.0
 10
274.879526970902
 20
101.903924621852
 30
0.0
  0
SPLINE
  5
54
330
4D
100
AcDbEntity
  8
LASER_MASK
 62
   250
100
AcDbSpline
210
0.0
220
0.0
230
1.0
 70
    11
 71
     3
 72
    17
 73
    13
 74
     0
 42
0.0000000001
 43
0.0000000001
 40
0.0
 40
0.0
 40
0.0
 40
0.0
 40
1.0
 40
1.0
 40
1.0
 40
2.0
 40
2.0
 40
2.0
 40
3.0
 40
3.0
 40
3.0
 40
4.0
 40
4.0
 40
4.0
 40
4.0
 10
78.87878601140292
 20
101.903924621852
 30
0.0
 10
78.87878601140292
 20
98.9969511336839
 30
0.0
 10
76.52371718406032
 20
96.64188230634129
 30
0.0
 10
73.61674369589224
 20
96.64188230634129
 30
0.0
 10
70.70977020772416
 20
96.64188230634129
 30
0.0
 10
68.35401236082997
 20
98.9969511336839
 30
0.0
 10
68.35401236082997
 20
101.903924621852
 30
0.0
 10
68.35401236082997
 20
104.8103813453563
 30
0.0
 10
70.70977020772416
 20
107.1664837020263
 30
0.0
 10
73.61674369589224
 20
107.1664837020263
 30
0.0
 10
76.52371718406032
 20
107.1664837020263
 30
0.0
 10
78.87878601140292
 20
104.8103813453563
 30
0.0
 10
78.87878601140292
 20
101.903924621852
 30
0.0
  0
SPLINE
  5
55
330
4D
100
AcDbEntity
  8
LASER_MASK
 62
   250
100
AcDbSpline
210
0.0
220
0.0
230
1.0
 70
    11
 71
     3
 72
    17
 73
    13
 74
     0
 42
0.0000000001
 43
0.0000000001
 40
0.0
 40
0.0
 40
0.0
 40
0.0
 40
1.0
 40
1.0
 40
1.0
 40
2.0
 40
2.0
 40
2.0
 40
3.0
 40
3.0
 40
3.0
 40
4.0
 40
4.0
 40
4.0
 40
4.0
 10
127.878411422892
 20
101.9046136414036
 30
0.0
 10
127.878411422892
 20
98.9976401532355
 30
0.0
 10
125.5233425955494
 20
96.64257132589287
 30
0.0
 10
122.6163691073813
 20
96.64257132589287
 30
0.0
 10
119.7093956192133
 20
96.64257132589287
 30
0.0
 10
117.3536377723191
 20
98.9976401532355
 30
0.0
 10
117.3536377723191
 20
101.9046136414036
 30
0.0
 10
117.3536377723191
 20
104.8110703649079
 30
0.0
 10
119.7093956192133
 20
107.1671727215779
 30
0.0
 10
122.6163691073813
 20
107.1671727215779
 30
0.0
 10
125.5233425955494
 20
107.1671727215779
 30
0.0
 10
127.878411422892
 20
104.8110703649079
 30
0.0
 10
127.878411422892
 20
101.9046136414036
 30
0.0
  0
SPLINE
  5
56
330
4D
100
AcDbEntity
  8
LASER_MASK
 62
   250
100
AcDbSpline
210
0.0
220
0.0
230
1.0
 70
    11
 71
     3
 72
    17
 73
    13
 74
     0
 42
0.0000000001
 43
0.0000000001
 40
0.0
 40
0.0
 40
0.0
 40
0.0
 40
1.0
 40
1.0
 40
1.0
 40
2.0
 40
2.0
 40
2.0
 40
3.0
 40
3.0
 40
3.0
 40
4.0
 40
4.0
 40
4.0
 40
4.0
 10
176.8785535990448
 20
101.9053026609552
 30
0.0
 10
176.8785535990448
 20
98.99832917278708
 30
0.0
 10
174.5234847717022
 20
96.64326034544447
 30
0.0
 10
171.6165112835341
 20
96.64326034544447
 30
0.0
 10
168.7095377953661
 20
96.64326034544447
 30
0.0
 10
166.3537799484718
 20
98.99832917278708
 30
0.0
 10
166.3537799484718
 20
101.9053026609552
 30
0.0
 10
166.3537799484718
 20
104.8121038942353
 30
0.0
 10
168.7095377953661
 20
107.1680339960174
 30
0.0
 10
171.6165112835341
 20
107.1680339960174
 30
0.0
 10
174.5234847717022
 20
107.1680339960174
 30
0.0
 10
176.8785535990448
 20
104.8121038942353
 30
0.0
 10
176.8785535990448
 20
101.9053026609552
 30
0.0
  0
ENDBLK
  5
50
330
4D
100
AcDbEntity
  8
0
100
AcDbBlockEnd
  0
BLOCK
  5
59
330
57
100
AcDbEntity
  8
0
100
AcDbBlockBegin
  2
BLOCK_3
 70
     0
 71
     0
 10
0.0
 20
0.0
 30
0.0
  3
BLOCK_3
  1

  0
SPLINE
  5
5B
330
57
100
AcDbEntity
  8
LASER_MASK
 62
   250
100
AcDbSpline
210
0.0
220
0.0
230
1.0
 70
    11
 71
     3
 72
    17
 73
    13
 74
     0
 42
0.0000000001
 43
0.0000000001
 40
0.0
 40
0.0
 40
0.0
 40
0.0
 40
1.0
 40
1.0
 40
1.0
 40
2.0
 40
2.0
 40
2.0
 40
3.0
 40
3.0
 40
3.0
 40
4.0
 40
4.0
 40
4.0
 40
4.0
 10
185.6470164126089
 20
116.2148607084248
 30
0.0
 10
185.1147488090038
 20
115.5802737014083
 30
0.0
 10
184.1683804548917
 20
115.4972468454414
 30
0.0
 10
183.5337934478752
 20
116.0298589588223
 30
0.0
 10
182.8988619310828
 20
116.5624710722032
 30
0.0
 10
182.8165240946676
 20
117.5088394263152
 30
0.0
 10
183.3487916982727
 20
118.143081923556
 30
0.0
 10
183.8814038116535
 20
118.7776689305725
 30
0.0
 10
184.8274276559898
 20
118.8606957865394
 30
0.0
 10
185.4620146630064
 20
118.3280836731585
 30
0.0
 10
186.0966016700229
 20
117.7954715597776
 30
0.0
 10
186.1796285259898
 20
116.8494477154414
 30
0.0
 10
185.6470164126089
 20
116.2148607084248
 30
0.0
  0
SPLINE
  5
5C
330
57
100
AcDbEntity
  8
LASER_MASK
 62
   250
100
AcDbSpline
210
0.0
220
0.0
230
1.0
 70
    11
 71
     3
 72
    17
 73
    13
 74
     0
 42
0.0000000001
 43
0.0000000001
 40
0.0
 40
0.0
 40
0.0
 40
0.0
 40
1.0
 40
1.0
 40
1.0
 40
2.0
 40
2.0
 40
2.0
 40
3.0
 40
3.0
 40
3.0
 40
4.0
 40
4.0
 40
4.0
 40
4.0
 10
188.1429897382521
 20
113.2551772245599
 30
0.0
 10
187.4980674379617
 20
112.7349674631077
 30
0.0
 10
186.5534216327286
 20
112.835908827416
 30
0.0
 10
186.0335563810522
 20
113.4808311277064
 30
0.0
 10
185.5130021098242
 20
114.1257534279969
 30
0.0
 10
185.6149770034598
 20
115.0703992332299
 30
0.0
 10
186.2592102841987
 20
115.5902644849064
 30
0.0
 10
186.9041325844891
 20
116.1101297365828
 30
0.0
 10
187.8487783897222
 20
116.0095328820503
 30
0.0
 10
188.3686436413986
 20
115.3646105817599
 30
0.0
 10
188.8885088930751
 20
114.7196882814694
 30
0.0
 10
188.7879120385426
 20
113.7753869860122
 30
0.0
 10
188.1429897382521
 20
113.2551772245599
 30
0.0
  0
SPLINE
  5
5D
330
57
100
AcDbEntity
  8
LASER_MASK
 62
   250
100
AcDbSpline
210
0.0
220
0.0
230
1.0
 70
    11
 71
     3
 72
    17
 73
    13
 74
     0
 42
0.0000000001
 43
0.0000000001
 40
0.0
 40
0.0
 40
0.0
 40
0.0
 40
1.0
 40
1.0
 40
1.0
 40
2.0
 40
2.0
 40
2.0
 40
3.0
 40
3.0
 40
3.0
 40
4.0
 40
4.0
 40
4.0
 40
4.0
 10
190.0219460554444
 20
109.8700241675868
 30
0.0
 10
189.2888292525502
 20
109.4838287089193
 30
0.0
 10
188.3810459933273
 20
109.7649486859689
 30
0.0
 10
187.9951950444356
 20
110.4980654888632
 30
0.0
 10
187.6089995857681
 20
111.2311822917574
 30
0.0
 10
187.8908085823693
 20
112.1386210412046
 30
0.0
 10
188.623236365712
 20
112.5244719900963
 30
0.0
 10
189.3563531686062
 20
112.910322938988
 30
0.0
 10
190.2637919180534
 20
112.6295474717141
 30
0.0
 10
190.6496428669451
 20
111.8964306688198
 30
0.0
 10
191.0354938158368
 20
111.1633138659256
 30
0.0
 10
190.7547183485629
 20
110.2562196262543
 30
0.0
 10
190.0219460554444
 20
109.8700241675868
 30
0.0
  0
SPLINE
  5
5E
330
57
100
AcDbEntity
  8
LASER_MASK
 62
   250
100
AcDbSpline
210
0.0
220
0.0
230
1.0
 70
    11
 71
     3
 72
    17
 73
    13
 74
     0
 42
0.0000000001
 43
0.0000000001
 40
0.0
 40
0.0
 40
0.0
 40
0.0
 40
1.0
 40
1.0
 40
1.0
 40
2.0
 40
2.0
 40
2.0
 40
3.0
 40
3.0
 40
3.0
 40
4.0
 40
4.0
 40
4.0
 40
4.0
 10
191.2132608601476
 20
106.1861811349983
 30
0.0
 10
190.4195103367132
 20
105.9488138994748
 30
0.0
 10
189.5826960913043
 20
106.3994326862162
 30
0.0
 10
189.3453288557808
 20
107.1931832096505
 30
0.0
 10
189.1076171104814
 20
107.9869337330849
 30
0.0
 10
189.5589249167744
 20
108.8230589589422
 30
0.0
 10
190.3519864206572
 20
109.0604261944658
 30
0.0
 10
191.1457369440915
 20
109.2977934299893
 30
0.0
 10
191.9822066797246
 20
108.8475191530238
 30
0.0
 10
192.2195739152482
 20
108.0537686295894
 30
0.0
 10
192.4569411507718
 20
107.260018106155
 30
0.0
 10
192.0063223640304
 20
106.4238928802977
 30
0.0
 10
191.2132608601476
 20
106.1861811349983
 30
0.0
  0
SPLINE
  5
5F
330
57
100
AcDbEntity
  8
LASER_MASK
 62
   250
100
AcDbSpline
210
0.0
220
0.0
230
1.0
 70
    11
 71
     3
 72
    17
 73
    13
 74
     0
 42
0.0000000001
 43
0.0000000001
 40
0.0
 40
0.0
 40
0.0
 40
0.0
 40
1.0
 40
1.0
 40
1.0
 40
2.0
 40
2.0
 40
2.0
 40
3.0
 40
3.0
 40
3.0
 40
4.0
 40
4.0
 40
4.0
 40
4.0
 10
191.6721478815081
 20
102.3417965468889
 30
0.0
 10
190.8473914782521
 20
102.2618702789042
 30
0.0
 10
190.1132411460304
 20
102.8654514060991
 30
0.0
 10
190.0333148780457
 20
103.6898632995793
 30
0.0
 10
189.9530441002852
 20
104.5146197028353
 30
0.0
 10
190.5569697372559
 20
105.2480810155054
 30
0.0
 10
191.3806926111845
 20
105.3283517932659
 30
0.0
 10
192.2054490144406
 20
105.4082780612506
 30
0.0
 10
192.9395993466622
 20
104.8050414438315
 30
0.0
 10
193.0195256146469
 20
103.9806295503513
 30
0.0
 10
193.0994518826316
 20
103.1558731470952
 30
0.0
 10
192.4962152652125
 20
102.4224118344252
 30
0.0
 10
191.6721478815081
 20
102.3417965468889
 30
0.0
  0
SPLINE
  5
60
330
57
100
AcDbEntity
  8
LASER_MASK
 62
   250
100
AcDbSpline
210
0.0
220
0.0
230
1.0
 70
    11
 71
     3
 72
    17
 73
    13
 74
     0
 42
0.0000000001
 43
0.0000000001
 40
0.0
 40
0.0
 40
0.0
 40
0.0
 40
1.0
 40
1.0
 40
1.0
 40
2.0
 40
2.0
 40
2.0
 40
3.0
 40
3.0
 40
3.0
 40
4.0
 40
4.0
 40
4.0
 40
4.0
 10
191.3813816307361
 20
98.48121999931703
 30
0.0
 10
190.5566252274801
 20
98.56149077707754
 30
0.0
 10
189.9526995905094
 20
99.29529659952338
 30
0.0
 10
190.0329703682699
 20
100.1197084930036
 30
0.0
 10
190.1135856558062
 20
100.9444648962596
 30
0.0
 10
190.8473914782521
 20
101.5477015136787
 30
0.0
 10
191.6711143521807
 20
101.467775245694
 30
0.0
 10
192.4958707554367
 20
101.3875044679335
 30
0.0
 10
193.0997963924074
 20
100.6540431552635
 30
0.0
 10
193.0195256146469
 20
99.82963126178323
 30
0.0
 10
192.9392548368864
 20
99.0048748585272
 30
0.0
 10
192.2057935242163
 20
98.40129373133232
 30
0.0
 10
191.3813816307361
 20
98.48121999931703
 30
0.0
  0
SPLINE
  5
61
330
57
100
AcDbEntity
  8
LASER_MASK
 62
   250
100
AcDbSpline
210
0.0
220
0.0
230
1.0
 70
    11
 71
     3
 72
    17
 73
    13
 74
     0
 42
0.0000000001
 43
0.0000000001
 40
0.0
 40
0.0
 40
0.0
 40
0.0
 40
1.0
 40
1.0
 40
1.0
 40
2.0
 40
2.0
 40
2.0
 40
3.0
 40
3.0
 40
3.0
 40
4.0
 40
4.0
 40
4.0
 40
4.0
 10
190.352330930433
 20
94.74914559811714
 30
0.0
 10
189.5582358972228
 20
94.98651283364069
 30
0.0
 10
189.1072726007056
 20
95.82298256927379
 30
0.0
 10
189.3446398362292
 20
96.61673309270816
 30
0.0
 10
189.5830406010801
 20
97.41048361614254
 30
0.0
 10
190.4191658269374
 20
97.86075789310813
 30
0.0
 10
191.2118828210444
 20
97.62373516736037
 30
0.0
 10
192.0059778542546
 20
97.38602342206102
 30
0.0
 10
192.4569411507718
 20
96.54989819620371
 30
0.0
 10
192.2195739152482
 20
95.75649218254513
 30
0.0
 10
191.9818621699488
 20
94.96274165911076
 30
0.0
 10
191.1457369440915
 20
94.51177836259357
 30
0.0
 10
190.352330930433
 20
94.74914559811714
 30
0.0
  0
SPLINE
  5
62
330
57
100
AcDbEntity
  8
LASER_MASK
 62
   250
100
AcDbSpline
210
0.0
220
0.0
230
1.0
 70
    11
 71
     3
 72
    17
 73
    13
 74
     0
 42
0.0000000001
 43
0.0000000001
 40
0.0
 40
0.0
 40
0.0
 40
0.0
 40
1.0
 40
1.0
 40
1.0
 40
2.0
 40
2.0
 40
2.0
 40
3.0
 40
3.0
 40
3.0
 40
4.0
 40
4.0
 40
4.0
 40
4.0
 10
188.623236365712
 20
91.28509980248666
 30
0.0
 10
187.8897750530419
 20
91.67095075137837
 30
0.0
 10
187.6083105662165
 20
92.57873401060127
 30
0.0
 10
187.9941615151082
 20
93.31185081349551
 30
0.0
 10
188.3813905031031
 20
94.04462310661397
 30
0.0
 10
189.2884847427744
 20
94.32539857388785
 30
0.0
 10
190.0205680163413
 20
93.94023664454772
 30
0.0
 10
190.7540293290113
 20
93.55404118588022
 30
0.0
 10
191.0354938158368
 20
92.64660243643311
 30
0.0
 10
190.6496428669451
 20
91.91383014331467
 30
0.0
 10
190.2634474082776
 20
91.18071334042041
 30
0.0
 10
189.3560086588305
 20
90.89924885359494
 30
0.0
 10
188.623236365712
 20
91.28509980248666
 30
0.0
  0
SPLINE
  5
63
330
57
100
AcDbEntity
  8
LASER_MASK
 62
   250
100
AcDbSpline
210
0.0
220
0.0
230
1.0
 70
    11
 71
     3
 72
    17
 73
    13
 74
     0
 42
0.0000000001
 43
0.0000000001
 40
0.0
 40
0.0
 40
0.0
 40
0.0
 40
1.0
 40
1.0
 40
1.0
 40
2.0
 40
2.0
 40
2.0
 40
3.0
 40
3.0
 40
3.0
 40
4.0
 40
4.0
 40
4.0
 40
4.0
 10
186.2592102841987
 20
88.21930730767654
 30
0.0
 10
185.6135989643567
 20
88.73917255935297
 30
0.0
 10
185.5123130902726
 20
89.68416287436186
 30
0.0
 10
186.0325228517248
 20
90.32908517465229
 30
0.0
 10
186.5534216327286
 20
90.97366296516692
 30
0.0
 10
187.4977229281859
 20
91.0742598196994
 30
0.0
 10
188.141611699149
 20
90.55542809735037
 30
0.0
 10
188.787223018991
 20
90.03487382612236
 30
0.0
 10
188.8885088930751
 20
89.09057253066506
 30
0.0
 10
188.3686436413986
 20
88.44565023037462
 30
0.0
 10
187.8484338799464
 20
87.80072793008421
 30
0.0
 10
186.9037880747133
 20
87.69944205600012
 30
0.0
 10
186.2592102841987
 20
88.21930730767654
 30
0.0
  0
SPLINE
  5
64
330
57
100
AcDbEntity
  8
LASER_MASK
 62
   250
100
AcDbSpline
210
0.0
220
0.0
230
1.0
 70
    11
 71
     3
 72
    17
 73
    13
 74
     0
 42
0.0000000001
 43
0.0000000001
 40
0.0
 40
0.0
 40
0.0
 40
0.0
 40
1.0
 40
1.0
 40
1.0
 40
2.0
 40
2.0
 40
2.0
 40
3.0
 40
3.0
 40
3.0
 40
4.0
 40
4.0
 40
4.0
 40
4.0
 10
183.3484471884969
 20
85.66648986902693
 30
0.0
 10
182.8151460555644
 20
86.30107687604348
 30
0.0
 10
182.8978284017555
 20
87.24778973993135
 30
0.0
 10
183.5327599185478
 20
87.78040185331223
 30
0.0
 10
184.1680359451159
 20
88.3126694569173
 30
0.0
 10
185.1140597894522
 20
88.22929809117464
 30
0.0
 10
185.6459828832815
 20
87.59608912326128
 30
0.0
 10
186.179284016214
 20
86.96081309669314
 30
0.0
 10
186.0966016700229
 20
86.01478925235686
 30
0.0
 10
185.4620146630064
 20
85.48217713897598
 30
0.0
 10
184.8274276559898
 20
84.9495650255951
 30
0.0
 10
183.8807147921019
 20
85.03224737178618
 30
0.0
 10
183.3484471884969
 20
85.66648986902693
 30
0.0
  0
ENDBLK
  5
5A
330
57
100
AcDbEntity
  8
0
100
AcDbBlockEnd
  0
BLOCK
  5
67
330
65
100
AcDbEntity
  8
0
100
AcDbBlockBegin
  2
BLOCK_4
 70
     0
 71
     0
 10
0.0
 20
0.0
 30
0.0
  3
BLOCK_4
  1

  0
SPLINE
  5
69
330
65
100
AcDbEntity
  8
LASER_MASK
 62
   250
100
AcDbSpline
210
0.0
220
0.0
230
1.0
 70
    11
 71
     3
 72
    17
 73
    13
 74
     0
 42
0.0000000001
 43
0.0000000001
 40
0.0
 40
0.0
 40
0.0
 40
0.0
 40
1.0
 40
1.0
 40
1.0
 40
2.0
 40
2.0
 40
2.0
 40
3.0
 40
3.0
 40
3.0
 40
4.0
 40
4.0
 40
4.0
 40
4.0
 10
206.5801194095357
 20
116.2148607084248
 30
0.0
 10
207.1123870131408
 20
115.5802737014083
 30
0.0
 10
208.0587553672529
 20
115.4972468454414
 30
0.0
 10
208.6933423742694
 20
116.0298589588223
 30
0.0
 10
209.3282738910617
 20
116.5624710722032
 30
0.0
 10
209.410611727477
 20
117.5088394263152
 30
0.0
 10
208.878344123872
 20
118.143081923556
 30
0.0
 10
208.3457320104911
 20
118.7776689305725
 30
0.0
 10
207.3997081661548
 20
118.8606957865394
 30
0.0
 10
206.7651211591383
 20
118.3280836731585
 30
0.0
 10
206.1305341521217
 20
117.7954715597776
 30
0.0
 10
206.0475072961548
 20
116.8494477154414
 30
0.0
 10
206.5801194095357
 20
116.2148607084248
 30
0.0
  0
SPLINE
  5
6A
330
65
100
AcDbEntity
  8
LASER_MASK
 62
   250
100
AcDbSpline
210
0.0
220
0.0
230
1.0
 70
    11
 71
     3
 72
    17
 73
    13
 74
     0
 42
0.0000000001
 43
0.0000000001
 40
0.0
 40
0.0
 40
0.0
 40
0.0
 40
1.0
 40
1.0
 40
1.0
 40
2.0
 40
2.0
 40
2.0
 40
3.0
 40
3.0
 40
3.0
 40
4.0
 40
4.0
 40
4.0
 40
4.0
 10
204.0841460838924
 20
113.2551772245599
 30
0.0
 10
204.7290683841829
 20
112.7349674631077
 30
0.0
 10
205.673714189416
 20
112.835908827416
 30
0.0
 10
206.1935794410924
 20
113.4808311277064
 30
0.0
 10
206.7141337123204
 20
114.1257534279969
 30
0.0
 10
206.6121588186847
 20
115.0703992332299
 30
0.0
 10
205.9679255379459
 20
115.5902644849064
 30
0.0
 10
205.3230032376555
 20
116.1101297365828
 30
0.0
 10
204.3783574324224
 20
116.0095328820503
 30
0.0
 10
203.858492180746
 20
115.3646105817599
 30
0.0
 10
203.3386269290696
 20
114.7196882814694
 30
0.0
 10
203.439223783602
 20
113.7753869860122
 30
0.0
 10
204.0841460838924
 20
113.2551772245599
 30
0.0
  0
SPLINE
  5
6B
330
65
100
AcDbEntity
  8
LASER_MASK
 62
   250
100
AcDbSpline
210
0.0
220
0.0
230
1.0
 70
    11
 71
     3
 72
    17
 73
    13
 74
     0
 42
0.0000000001
 43
0.0000000001
 40
0.0
 40
0.0
 40
0.0
 40
0.0
 40
1.0
 40
1.0
 40
1.0
 40
2.0
 40
2.0
 40
2.0
 40
3.0
 40
3.0
 40
3.0
 40
4.0
 40
4.0
 40
4.0
 40
4.0
 10
202.2051897667002
 20
109.8700241675868
 30
0.0
 10
202.9383065695944
 20
109.4838287089193
 30
0.0
 10
203.8460898288173
 20
109.7649486859689
 30
0.0
 10
204.231940777709
 20
110.4980654888632
 30
0.0
 10
204.6181362363765
 20
111.2311822917574
 30
0.0
 10
204.3363272397753
 20
112.1386210412046
 30
0.0
 10
203.6038994564326
 20
112.5244719900963
 30
0.0
 10
202.8707826535384
 20
112.910322938988
 30
0.0
 10
201.9633439040913
 20
112.6295474717141
 30
0.0
 10
201.5774929551995
 20
111.8964306688198
 30
0.0
 10
201.1916420063078
 20
111.1633138659256
 30
0.0
 10
201.4724174735817
 20
110.2562196262543
 30
0.0
 10
202.2051897667002
 20
109.8700241675868
 30
0.0
  0
SPLINE
  5
6C
330
65
100
AcDbEntity
  8
LASER_MASK
 62
   250
100
AcDbSpline
210
0.0
220
0.0
230
1.0
 70
    11
 71
     3
 72
    17
 73
    13
 74
     0
 42
0.0000000001
 43
0.0000000001
 40
0.0
 40
0.0
 40
0.0
 40
0.0
 40
1.0
 40
1.0
 40
1.0
 40
2.0
 40
2.0
 40
2.0
 40
3.0
 40
3.0
 40
3.0
 40
4.0
 40
4.0
 40
4.0
 40
4.0
 10
201.013874961997
 20
106.1861811349983
 30
0.0
 10
201.8076254854314
 20
105.9488138994748
 30
0.0
 10
202.6444397308403
 20
106.3994326862162
 30
0.0
 10
202.8818069663638
 20
107.1931832096505
 30
0.0
 10
203.1195187116632
 20
107.9869337330849
 30
0.0
 10
202.6682109053702
 20
108.8230589589422
 30
0.0
 10
201.8751494014874
 20
109.0604261944658
 30
0.0
 10
201.0813988780531
 20
109.2977934299893
 30
0.0
 10
200.2449291424199
 20
108.8475191530238
 30
0.0
 10
200.0075619068964
 20
108.0537686295894
 30
0.0
 10
199.7701946713728
 20
107.260018106155
 30
0.0
 10
200.2208134581142
 20
106.4238928802977
 30
0.0
 10
201.013874961997
 20
106.1861811349983
 30
0.0
  0
SPLINE
  5
6D
330
65
100
AcDbEntity
  8
LASER_MASK
 62
   250
100
AcDbSpline
210
0.0
220
0.0
230
1.0
 70
    11
 71
     3
 72
    17
 73
    13
 74
     0
 42
0.0000000001
 43
0.0000000001
 40
0.0
 40
0.0
 40
0.0
 40
0.0
 40
1.0
 40
1.0
 40
1.0
 40
2.0
 40
2.0
 40
2.0
 40
3.0
 40
3.0
 40
3.0
 40
4.0
 40
4.0
 40
4.0
 40
4.0
 10
200.5549879406365
 20
102.3417965468889
 30
0.0
 10
201.3797443438925
 20
102.2618702789042
 30
0.0
 10
202.1138946761142
 20
102.8654514060991
 30
0.0
 10
202.1938209440989
 20
103.6898632995793
 30
0.0
 10
202.2740917218594
 20
104.5146197028353
 30
0.0
 10
201.6701660848887
 20
105.2480810155054
 30
0.0
 10
200.8464432109601
 20
105.3283517932659
 30
0.0
 10
200.021686807704
 20
105.4082780612506
 30
0.0
 10
199.2875364754824
 20
104.8050414438315
 30
0.0
 10
199.2076102074977
 20
103.9806295503513
 30
0.0
 10
199.127683939513
 20
103.1558731470952
 30
0.0
 10
199.7309205569321
 20
102.4224118344252
 30
0.0
 10
200.5549879406365
 20
102.3417965468889
 30
0.0
  0
SPLINE
  5
6E
330
65
100
AcDbEntity
  8
LASER_MASK
 62
   250
100
AcDbSpline
210
0.0
220
0.0
230
1.0
 70
    11
 71
     3
 72
    17
 73
    13
 74
     0
 42
0.0000000001
 43
0.0000000001
 40
0.0
 40
0.0
 40
0.0
 40
0.0
 40
1.0
 40
1.0
 40
1.0
 40
2.0
 40
2.0
 40
2.0
 40
3.0
 40
3.0
 40
3.0
 40
4.0
 40
4.0
 40
4.0
 40
4.0
 10
200.8457541914085
 20
98.48121999931703
 30
0.0
 10
201.6705105946645
 20
98.56149077707754
 30
0.0
 10
202.2744362316352
 20
99.29529659952338
 30
0.0
 10
202.1941654538747
 20
100.1197084930036
 30
0.0
 10
202.1135501663384
 20
100.9444648962596
 30
0.0
 10
201.3797443438925
 20
101.5477015136787
 30
0.0
 10
200.5560214699639
 20
101.467775245694
 30
0.0
 10
199.7312650667079
 20
101.3875044679335
 30
0.0
 10
199.1273394297372
 20
100.6540431552635
 30
0.0
 10
199.2076102074977
 20
99.82963126178323
 30
0.0
 10
199.2878809852582
 20
99.0048748585272
 30
0.0
 10
200.0213422979282
 20
98.40129373133232
 30
0.0
 10
200.8457541914085
 20
98.48121999931703
 30
0.0
  0
SPLINE
  5
6F
330
65
100
AcDbEntity
  8
LASER_MASK
 62
   250
100
AcDbSpline
210
0.0
220
0.0
230
1.0
 70
    11
 71
     3
 72
    17
 73
    13
 74
     0
 42
0.0000000001
 43
0.0000000001
 40
0.0
 40
0.0
 40
0.0
 40
0.0
 40
1.0
 40
1.0
 40
1.0
 40
2.0
 40
2.0
 40
2.0
 40
3.0
 40
3.0
 40
3.0
 40
4.0
 40
4.0
 40
4.0
 40
4.0
 10
201.8748048917116
 20
94.74914559811714
 30
0.0
 10
202.6688999249218
 20
94.98651283364069
 30
0.0
 10
203.119863221439
 20
95.82298256927379
 30
0.0
 10
202.8824959859154
 20
96.61673309270816
 30
0.0
 10
202.6440952210645
 20
97.41048361614254
 30
0.0
 10
201.8079699952072
 20
97.86075789310813
 30
0.0
 10
201.0152530011002
 20
97.62373516736037
 30
0.0
 10
200.22115796789
 20
97.38602342206102
 30
0.0
 10
199.7701946713728
 20
96.54989819620371
 30
0.0
 10
200.0075619068964
 20
95.75649218254513
 30
0.0
 10
200.2452736521957
 20
94.96274165911076
 30
0.0
 10
201.0813988780531
 20
94.51177836259357
 30
0.0
 10
201.8748048917116
 20
94.74914559811714
 30
0.0
  0
SPLINE
  5
70
330
65
100
AcDbEntity
  8
LASER_MASK
 62
   250
100
AcDbSpline
210
0.0
220
0.0
230
1.0
 70
    11
 71
     3
 72
    17
 73
    13
 74
     0
 42
0.0000000001
 43
0.0000000001
 40
0.0
 40
0.0
 40
0.0
 40
0.0
 40
1.0
 40
1.0
 40
1.0
 40
2.0
 40
2.0
 40
2.0
 40
3.0
 40
3.0
 40
3.0
 40
4.0
 40
4.0
 40
4.0
 40
4.0
 10
203.6038994564326
 20
91.28509980248666
 30
0.0
 10
204.3373607691026
 20
91.67095075137837
 30
0.0
 10
204.6188252559281
 20
92.57873401060127
 30
0.0
 10
204.2329743070364
 20
93.31185081349551
 30
0.0
 10
203.8457453190415
 20
94.04462310661397
 30
0.0
 10
202.9386510793702
 20
94.32539857388785
 30
0.0
 10
202.2065678058033
 20
93.94023664454772
 30
0.0
 10
201.4731064931333
 20
93.55404118588022
 30
0.0
 10
201.1916420063078
 20
92.64660243643311
 30
0.0
 10
201.5774929551995
 20
91.91383014331467
 30
0.0
 10
201.963688413867
 20
91.18071334042041
 30
0.0
 10
202.8711271633142
 20
90.89924885359494
 30
0.0
 10
203.6038994564326
 20
91.28509980248666
 30
0.0
  0
SPLINE
  5
71
330
65
100
AcDbEntity
  8
LASER_MASK
 62
   250
100
AcDbSpline
210
0.0
220
0.0
230
1.0
 70
    11
 71
     3
 72
    17
 73
    13
 74
     0
 42
0.0000000001
 43
0.0000000001
 40
0.0
 40
0.0
 40
0.0
 40
0.0
 40
1.0
 40
1.0
 40
1.0
 40
2.0
 40
2.0
 40
2.0
 40
3.0
 40
3.0
 40
3.0
 40
4.0
 40
4.0
 40
4.0
 40
4.0
 10
205.9679255379459
 20
88.21930730767654
 30
0.0
 10
206.6135368577879
 20
88.73917255935297
 30
0.0
 10
206.714822731872
 20
89.68416287436186
 30
0.0
 10
206.1946129704198
 20
90.32908517465229
 30
0.0
 10
205.673714189416
 20
90.97366296516692
 30
0.0
 10
204.7294128939587
 20
91.0742598196994
 30
0.0
 10
204.0855241229957
 20
90.55542809735037
 30
0.0
 10
203.4399128031536
 20
90.03487382612236
 30
0.0
 10
203.3386269290696
 20
89.09057253066506
 30
0.0
 10
203.858492180746
 20
88.44565023037462
 30
0.0
 10
204.3787019421982
 20
87.80072793008421
 30
0.0
 10
205.3233477474313
 20
87.69944205600012
 30
0.0
 10
205.9679255379459
 20
88.21930730767654
 30
0.0
  0
SPLINE
  5
72
330
65
100
AcDbEntity
  8
LASER_MASK
 62
   250
100
AcDbSpline
210
0.0
220
0.0
230
1.0
 70
    11
 71
     3
 72
    17
 73
    13
 74
     0
 42
0.0000000001
 43
0.0000000001
 40
0.0
 40
0.0
 40
0.0
 40
0.0
 40
1.0
 40
1.0
 40
1.0
 40
2.0
 40
2.0
 40
2.0
 40
3.0
 40
3.0
 40
3.0
 40
4.0
 40
4.0
 40
4.0
 40
4.0
 10
208.8786886336478
 20
85.66648986902693
 30
0.0
 10
209.4119897665802
 20
86.30107687604348
 30
0.0
 10
209.3293074203891
 20
87.24778973993135
 30
0.0
 10
208.6943759035968
 20
87.78040185331223
 30
0.0
 10
208.0590998770287
 20
88.3126694569173
 30
0.0
 10
207.1130760326924
 20
88.22929809117464
 30
0.0
 10
206.5811529388631
 20
87.59608912326128
 30
0.0
 10
206.0478518059306
 20
86.96081309669314
 30
0.0
 10
206.1305341521217
 20
86.01478925235686
 30
0.0
 10
206.7651211591383
 20
85.48217713897598
 30
0.0
 10
207.3997081661548
 20
84.9495650255951
 30
0.0
 10
208.3464210300427
 20
85.03224737178618
 30
0.0
 10
208.8786886336478
 20
85.66648986902693
 30
0.0
  0
ENDBLK
  5
68
330
65
100
AcDbEntity
  8
0
100
AcDbBlockEnd
  0
BLOCK
  5
7D
330
7B
100
AcDbEntity
  8
0
100
AcDbBlockBegin
  2
BLOCK_5
 70
     0
 71
     0
 10
0.0
 20
0.0
 30
0.0
  3
BLOCK_5
  1

  0
SPLINE
  5
7F
330
7B
100
AcDbEntity
  8
LASER_MASK
 62
   250
100
AcDbSpline
210
0.0
220
0.0
230
1.0
 70
    11
 71
     3
 72
    17
 73
    13
 74
     0
 42
0.0000000001
 43
0.0000000001
 40
0.0
 40
0.0
 40
0.0
 40
0.0
 40
1.0
 40
1.0
 40
1.0
 40
2.0
 40
2.0
 40
2.0
 40
3.0
 40
3.0
 40
3.0
 40
4.0
 40
4.0
 40
4.0
 40
4.0
 10
-10.40540101325958
 20
116.2148607084248
 30
0.0
 10
-10.93784087175256
 20
115.5802737014083
 30
0.0
 10
-11.88420922586464
 20
115.4972468454414
 30
0.0
 10
-12.51879623288118
 20
116.0298589588223
 30
0.0
 10
-13.15355549478562
 20
116.5624710722032
 30
0.0
 10
-13.23606558608881
 20
117.5088394263152
 30
0.0
 10
-12.70362572759583
 20
118.143081923556
 30
0.0
 10
-12.17118586910285
 20
118.7776689305725
 30
0.0
 10
-11.22498976987867
 20
118.8606957865394
 30
0.0
 10
-10.59040276286213
 20
118.3280836731585
 30
0.0
 10
-9.955815755845585
 20
117.7954715597776
 30
0.0
 10
-9.872961154766607
 20
116.8494477154414
 30
0.0
 10
-10.40540101325958
 20
116.2148607084248
 30
0.0
  0
SPLINE
  5
80
330
7B
100
AcDbEntity
  8
LASER_MASK
 62
   250
100
AcDbSpline
210
0.0
220
0.0
230
1.0
 70
    11
 71
     3
 72
    17
 73
    13
 74
     0
 42
0.0000000001
 43
0.0000000001
 40
0.0
 40
0.0
 40
0.0
 40
0.0
 40
1.0
 40
1.0
 40
1.0
 40
2.0
 40
2.0
 40
2.0
 40
3.0
 40
3.0
 40
3.0
 40
4.0
 40
4.0
 40
4.0
 40
4.0
 10
-6.35310477545715
 20
110.5755801884173
 30
0.0
 10
-7.070546383552672
 20
110.1611349281345
 30
0.0
 10
-7.988320426273665
 20
110.4067703982772
 30
0.0
 10
-8.40242117678066
 20
111.1243842612606
 30
0.0
 10
-8.816694182175553
 20
111.8419981242441
 30
0.0
 10
-8.57054194736919
 20
112.7594276571892
 30
0.0
 10
-7.853272594161567
 20
113.1735284076962
 30
0.0
 10
-7.136003240953944
 20
113.5876291582032
 30
0.0
 10
-6.218401453120848
 20
113.3419936880606
 30
0.0
 10
-5.804300702613853
 20
112.6243798250772
 30
0.0
 10
-5.39002769721896
 20
111.9071104718695
 30
0.0
 10
-5.635835422249526
 20
110.9896809389243
 30
0.0
 10
-6.35310477545715
 20
110.5755801884173
 30
0.0
  0
SPLINE
  5
81
330
7B
100
AcDbEntity
  8
LASER_MASK
 62
   250
100
AcDbSpline
210
0.0
220
0.0
230
1.0
 70
    11
 71
     3
 72
    17
 73
    13
 74
     0
 42
0.0000000001
 43
0.0000000001
 40
0.0
 40
0.0
 40
0.0
 40
0.0
 40
1.0
 40
1.0
 40
1.0
 40
2.0
 40
2.0
 40
2.0
 40
3.0
 40
3.0
 40
3.0
 40
4.0
 40
4.0
 40
4.0
 40
4.0
 10
-4.473976203376947
 20
103.8903679890927
 30
0.0
 10
-5.289947607350173
 20
103.7460183930341
 30
0.0
 10
-6.068367445761616
 20
104.2910328583436
 30
0.0
 10
-6.212028022268618
 20
105.1068320074289
 30
0.0
 10
-6.355860853663519
 20
105.9229756662901
 30
0.0
 10
-5.81084638835398
 20
106.7008787400378
 30
0.0
 10
-4.99521949415655
 20
106.8445393165448
 30
0.0
 10
-4.17959259995912
 20
106.9885444028276
 30
0.0
 10
-3.401345016435575
 20
106.4438744472939
 30
0.0
 10
-3.257512185040675
 20
105.6277307884328
 30
0.0
 10
-3.113679353645774
 20
104.8122761491232
 30
0.0
 10
-3.658349309179517
 20
104.0340285655997
 30
0.0
 10
-4.473976203376947
 20
103.8903679890927
 30
0.0
  0
SPLINE
  5
82
330
7B
100
AcDbEntity
  8
LASER_MASK
 62
   250
100
AcDbSpline
210
0.0
220
0.0
230
1.0
 70
    11
 71
     3
 72
    17
 73
    13
 74
     0
 42
0.0000000001
 43
0.0000000001
 40
0.0
 40
0.0
 40
0.0
 40
0.0
 40
1.0
 40
1.0
 40
1.0
 40
2.0
 40
2.0
 40
2.0
 40
3.0
 40
3.0
 40
3.0
 40
4.0
 40
4.0
 40
4.0
 40
4.0
 10
-4.994702729492856
 20
96.96572149558969
 30
0.0
 10
-5.81084638835398
 20
97.10903756232089
 30
0.0
 10
-6.355860853663519
 20
97.88728514584443
 30
0.0
 10
-6.211855767380721
 20
98.70308429492977
 30
0.0
 10
-6.067850681097922
 20
99.51922795379089
 30
0.0
 10
-5.289775352462274
 20
100.0638979093246
 30
0.0
 10
-4.474148458264845
 20
99.91989282304183
 30
0.0
 10
-3.658521564067415
 20
99.77623224653483
 30
0.0
 10
-3.113507098757876
 20
98.99832917278708
 30
0.0
 10
-3.257512185040675
 20
98.18218551392596
 30
0.0
 10
-3.401172761547677
 20
97.36673087461642
 30
0.0
 10
-4.179075835295426
 20
96.82171640930689
 30
0.0
 10
-4.994702729492856
 20
96.96572149558969
 30
0.0
  0
SPLINE
  5
83
330
7B
100
AcDbEntity
  8
LASER_MASK
 62
   250
100
AcDbSpline
210
0.0
220
0.0
230
1.0
 70
    11
 71
     3
 72
    17
 73
    13
 74
     0
 42
0.0000000001
 43
0.0000000001
 40
0.0
 40
0.0
 40
0.0
 40
0.0
 40
1.0
 40
1.0
 40
1.0
 40
2.0
 40
2.0
 40
2.0
 40
3.0
 40
3.0
 40
3.0
 40
4.0
 40
4.0
 40
4.0
 40
4.0
 10
-7.852411319722076
 20
90.63673240443826
 30
0.0
 10
-8.570369692481293
 20
91.05048864516947
 30
0.0
 10
-8.816349672399756
 20
91.96826268789046
 30
0.0
 10
-8.401904412116966
 20
92.68553204109809
 30
0.0
 10
-7.987459151834175
 20
93.4031459040815
 30
0.0
 10
-7.070029618888977
 20
93.64878137422417
 30
0.0
 10
-6.352932520569252
 20
93.23468062371718
 30
0.0
 10
-5.635663167361628
 20
92.82057987321018
 30
0.0
 10
-5.389510932555265
 20
91.90315034026499
 30
0.0
 10
-5.803956192838057
 20
91.18553647728156
 30
0.0
 10
-6.217884688457153
 20
90.46861163384973
 30
0.0
 10
-7.135141966514453
 20
90.22228714415547
 30
0.0
 10
-7.852411319722076
 20
90.63673240443826
 30
0.0
  0
SPLINE
  5
84
330
7B
100
AcDbEntity
  8
LASER_MASK
 62
   250
100
AcDbSpline
210
0.0
220
0.0
230
1.0
 70
    11
 71
     3
 72
    17
 73
    13
 74
     0
 42
0.0000000001
 43
0.0000000001
 40
0.0
 40
0.0
 40
0.0
 40
0.0
 40
1.0
 40
1.0
 40
1.0
 40
2.0
 40
2.0
 40
2.0
 40
3.0
 40
3.0
 40
3.0
 40
4.0
 40
4.0
 40
4.0
 40
4.0
 10
-12.70241994338054
 20
85.66683437880273
 30
0.0
 10
-13.23554882142511
 20
86.30107687604348
 30
0.0
 10
-13.15286647523403
 20
87.24778973993135
 30
0.0
 10
-12.51793495844169
 20
87.78005734353643
 30
0.0
 10
-11.88317569653725
 20
88.31232494714152
 30
0.0
 10
-10.93697959731307
 20
88.22929809117464
 30
0.0
 10
-10.40488424859589
 20
87.59505559393389
 30
0.0
 10
-9.872444390102913
 20
86.96046858691734
 30
0.0
 10
-9.954954481406094
 20
86.01444474258106
 30
0.0
 10
-10.58971374331054
 20
85.48183262920018
 30
0.0
 10
-11.22395624055128
 20
84.9495650255951
 30
0.0
 10
-12.17015233977546
 20
85.0319028620104
 30
0.0
 10
-12.70241994338054
 20
85.66683437880273
 30
0.0
  0
ENDBLK
  5
7E
330
7B
100
AcDbEntity
  8
0
100
AcDbBlockEnd
  0
BLOCK
  5
8A
330
88
100
AcDbEntity
  8
0
100
AcDbBlockBegin
  2
BLOCK_6
 70
     0
 71
     0
 10
0.0
 20
0.0
 30
0.0
  3
BLOCK_6
  1

  0
POLYLINE
  5
8C
330
88
100
AcDbEntity
  8
LASER_MASK
 62
   250
100
AcDb2dPolyline
 66
     1
 10
0.0
 20
0.0
 30
0.0
  0
VERTEX
  5
8D
330
8C
100
AcDbEntity
  8
LASER_MASK
 62
   250
100
AcDbVertex
100
AcDb2dVertex
 10
371.9768512008458
 20
79.45739017985258
 30
0.0
  0
VERTEX
  5
8E
330
8C
100
AcDbEntity
  8
LASER_MASK
 62
   250
100
AcDbVertex
100
AcDb2dVertex
 10
-113.9472973641344
 20
79.45739017985258
 30
0.0
  0
VERTEX
  5
8F
330
8C
100
AcDbEntity
  8
LASER_MASK
 62
   250
100
AcDbVertex
100
AcDb2dVertex
 10
-113.9472973641344
 20
124.3521816127303
 30
0.0
  0
VERTEX
  5
90
330
8C
100
AcDbEntity
  8
LASER_MASK
 62
   250
100
AcDbVertex
100
AcDb2dVertex
 10
371.9768512008458
 20
124.3521816127303
 30
0.0
  0
VERTEX
  5
91
330
8C
100
AcDbEntity
  8
LASER_MASK
 62
   250
100
AcDbVertex
100
AcDb2dVertex
 10
371.9768512008458
 20
79.45739017985258
 30
0.0
  0
SEQEND
  5
92
330
8C
100
AcDbEntity
  8
LASER_MASK
  0
SPLINE
  5
93
330
88
100
AcDbEntity
  8
LASER_MASK
 62
   250
100
AcDbSpline
210
0.0
220
0.0
230
1.0
 70
    11
 71
     3
 72
    17
 73
    13
 74
     0
 42
0.0000000001
 43
0.0000000001
 40
0.0
 40
0.0
 40
0.0
 40
0.0
 40
1.0
 40
1.0
 40
1.0
 40
2.0
 40
2.0
 40
2.0
 40
3.0
 40
3.0
 40
3.0
 40
4.0
 40
4.0
 40
4.0
 40
4.0
 10
-76.41502434979662
 20
111.6339142196632
 30
0.0
 10
-76.41502434979662
 20
109.7201624151155
 30
0.0
 10
-77.96600736043098
 20
108.1684903849295
 30
0.0
 10
-79.88010367475448
 20
108.1684903849295
 30
0.0
 10
-81.794199989078
 20
108.1684903849295
 30
0.0
 10
-83.34518299971235
 20
109.7201624151155
 30
0.0
 10
-83.34518299971235
 20
111.6339142196632
 30
0.0
 10
-83.34518299971235
 20
113.5476660242109
 30
0.0
 10
-81.794199989078
 20
115.0993380543968
 30
0.0
 10
-79.88010367475448
 20
115.0993380543968
 30
0.0
 10
-77.96600736043098
 20
115.0993380543968
 30
0.0
 10
-76.41502434979662
 20
113.5476660242109
 30
0.0
 10
-76.41502434979662
 20
111.6339142196632
 30
0.0
  0
SPLINE
  5
94
330
88
100
AcDbEntity
  8
LASER_MASK
 62
   250
100
AcDbSpline
210
0.0
220
0.0
230
1.0
 70
    11
 71
     3
 72
    17
 73
    13
 74
     0
 42
0.0000000001
 43
0.0000000001
 40
0.0
 40
0.0
 40
0.0
 40
0.0
 40
1.0
 40
1.0
 40
1.0
 40
2.0
 40
2.0
 40
2.0
 40
3.0
 40
3.0
 40
3.0
 40
4.0
 40
4.0
 40
4.0
 40
4.0
 10
-76.41502434979662
 20
111.6339142196632
 30
0.0
 10
-76.41502434979662
 20
109.7201624151155
 30
0.0
 10
-77.96600736043098
 20
108.1684903849295
 30
0.0
 10
-79.88010367475448
 20
108.1684903849295
 30
0.0
 10
-81.794199989078
 20
108.1684903849295
 30
0.0
 10
-83.34518299971235
 20
109.7201624151155
 30
0.0
 10
-83.34518299971235
 20
111.6339142196632
 30
0.0
 10
-83.34518299971235
 20
113.5476660242109
 30
0.0
 10
-81.794199989078
 20
115.0993380543968
 30
0.0
 10
-79.88010367475448
 20
115.0993380543968
 30
0.0
 10
-77.96600736043098
 20
115.0993380543968
 30
0.0
 10
-76.41502434979662
 20
113.5476660242109
 30
0.0
 10
-76.41502434979662
 20
111.6339142196632
 30
0.0
  0
SPLINE
  5
95
330
88
100
AcDbEntity
  8
LASER_MASK
 62
   250
100
AcDbSpline
210
0.0
220
0.0
230
1.0
 70
    11
 71
     3
 72
    17
 73
    13
 74
     0
 42
0.0000000001
 43
0.0000000001
 40
0.0
 40
0.0
 40
0.0
 40
0.0
 40
1.0
 40
1.0
 40
1.0
 40
2.0
 40
2.0
 40
2.0
 40
3.0
 40
3.0
 40
3.0
 40
4.0
 40
4.0
 40
4.0
 40
4.0
 10
-76.31580553436733
 20
91.74295329451976
 30
0.0
 10
-76.31580553436733
 20
89.82920148997205
 30
0.0
 10
-77.86747756455327
 20
88.2778739695619
 30
0.0
 10
-79.78157387887678
 20
88.2778739695619
 30
0.0
 10
-81.6949811736487
 20
88.2778739695619
 30
0.0
 10
-83.24665320383465
 20
89.82920148997205
 30
0.0
 10
-83.24665320383465
 20
91.74295329451976
 30
0.0
 10
-83.24665320383465
 20
93.65704960884328
 30
0.0
 10
-81.6949811736487
 20
95.20837712925342
 30
0.0
 10
-79.78157387887678
 20
95.20837712925342
 30
0.0
 10
-77.86747756455327
 20
95.20837712925342
 30
0.0
 10
-76.31580553436733
 20
93.65704960884328
 30
0.0
 10
-76.31580553436733
 20
91.74295329451976
 30
0.0
  0
SPLINE
  5
96
330
88
100
AcDbEntity
  8
LASER_MASK
 62
   250
100
AcDbSpline
210
0.0
220
0.0
230
1.0
 70
    11
 71
     3
 72
    17
 73
    13
 74
     0
 42
0.0000000001
 43
0.0000000001
 40
0.0
 40
0.0
 40
0.0
 40
0.0
 40
1.0
 40
1.0
 40
1.0
 40
2.0
 40
2.0
 40
2.0
 40
3.0
 40
3.0
 40
3.0
 40
4.0
 40
4.0
 40
4.0
 40
4.0
 10
-76.41502434979662
 20
111.6339142196632
 30
0.0
 10
-76.41502434979662
 20
109.7201624151155
 30
0.0
 10
-77.96600736043098
 20
108.1684903849295
 30
0.0
 10
-79.88010367475448
 20
108.1684903849295
 30
0.0
 10
-81.794199989078
 20
108.1684903849295
 30
0.0
 10
-83.34518299971235
 20
109.7201624151155
 30
0.0
 10
-83.34518299971235
 20
111.6339142196632
 30
0.0
 10
-83.34518299971235
 20
113.5476660242109
 30
0.0
 10
-81.794199989078
 20
115.0993380543968
 30
0.0
 10
-79.88010367475448
 20
115.0993380543968
 30
0.0
 10
-77.96600736043098
 20
115.0993380543968
 30
0.0
 10
-76.41502434979662
 20
113.5476660242109
 30
0.0
 10
-76.41502434979662
 20
111.6339142196632
 30
0.0
  0
SPLINE
  5
97
330
88
100
AcDbEntity
  8
LASER_MASK
 62
   250
100
AcDbSpline
210
0.0
220
0.0
230
1.0
 70
    11
 71
     3
 72
    17
 73
    13
 74
     0
 42
0.0000000001
 43
0.0000000001
 40
0.0
 40
0.0
 40
0.0
 40
0.0
 40
1.0
 40
1.0
 40
1.0
 40
2.0
 40
2.0
 40
2.0
 40
3.0
 40
3.0
 40
3.0
 40
4.0
 40
4.0
 40
4.0
 40
4.0
 10
341.5903999560721
 20
112.153090451788
 30
0.0
 10
341.5903999560721
 20
110.2393386472403
 30
0.0
 10
340.0387279258862
 20
108.6876666170543
 30
0.0
 10
338.1246316115627
 20
108.6876666170543
 30
0.0
 10
336.2112243167907
 20
108.6876666170543
 30
0.0
 10
334.6595522866048
 20
110.2393386472403
 30
0.0
 10
334.6595522866048
 20
112.153090451788
 30
0.0
 10
334.6595522866048
 20
114.0668422563357
 30
0.0
 10
336.2112243167907
 20
115.6185142865217
 30
0.0
 10
338.1246316115627
 20
115.6185142865217
 30
0.0
 10
340.0387279258862
 20
115.6185142865217
 30
0.0
 10
341.5903999560721
 20
114.0668422563357
 30
0.0
 10
341.5903999560721
 20
112.153090451788
 30
0.0
  0
SPLINE
  5
98
330
88
100
AcDbEntity
  8
LASER_MASK
 62
   250
100
AcDbSpline
210
0.0
220
0.0
230
1.0
 70
    11
 71
     3
 72
    17
 73
    13
 74
     0
 42
0.0000000001
 43
0.0000000001
 40
0.0
 40
0.0
 40
0.0
 40
0.0
 40
1.0
 40
1.0
 40
1.0
 40
2.0
 40
2.0
 40
2.0
 40
3.0
 40
3.0
 40
3.0
 40
4.0
 40
4.0
 40
4.0
 40
4.0
 10
341.604180347104
 20
92.23181266637452
 30
0.0
 10
341.604180347104
 20
90.31806086182681
 30
0.0
 10
340.052508316918
 20
88.76673334141667
 30
0.0
 10
338.1391010221461
 20
88.76673334141667
 30
0.0
 10
336.2250047078226
 20
88.76673334141667
 30
0.0
 10
334.6733326776366
 20
90.31806086182681
 30
0.0
 10
334.6733326776366
 20
92.23181266637452
 30
0.0
 10
334.6733326776366
 20
94.14590898069804
 30
0.0
 10
336.2250047078226
 20
95.6972365011082
 30
0.0
 10
338.1391010221461
 20
95.6972365011082
 30
0.0
 10
340.052508316918
 20
95.6972365011082
 30
0.0
 10
341.604180347104
 20
94.14590898069804
 30
0.0
 10
341.604180347104
 20
92.23181266637452
 30
0.0
  0
INSERT
  5
9A
330
88
100
AcDbEntity
  8
LASER_MASK
100
AcDbBlockReference
  2
BLOCK_7
 10
0.0
 20
0.0
 30
0.0
  0
INSERT
  5
9F
330
88
100
AcDbEntity
  8
LASER_MASK
100
AcDbBlockReference
  2
BLOCK_8
 10
0.0
 20
0.0
 30
0.0
  0
INSERT
  5
A4
330
88
100
AcDbEntity
  8
LASER_MASK
100
AcDbBlockReference
  2
BLOCK_9
 10
0.0
 20
0.0
 30
0.0
  0
INSERT
  5
A9
330
88
100
AcDbEntity
  8
LASER_MASK
100
AcDbBlockReference
  2
BLOCK_10
 10
0.0
 20
0.0
 30
0.0
  0
ENDBLK
  5
8B
330
88
100
AcDbEntity
  8
0
100
AcDbBlockEnd
  0
BLOCK
  5
9B
330
99
100
AcDbEntity
  8
0
100
AcDbBlockBegin
  2
BLOCK_7
 70
     0
 71
     0
 10
0.0
 20
0.0
 30
0.0
  3
BLOCK_7
  1

  0
SPLINE
  5
9D
330
99
100
AcDbEntity
  8
LASER_MASK
 62
   250
100
AcDbSpline
210
0.0
220
0.0
230
1.0
 70
    11
 71
     3
 72
    23
 73
    19
 74
     0
 42
0.0000000001
 43
0.0000000001
 40
0.0
 40
0.0
 40
0.0
 40
0.0
 40
1.0
 40
1.0
 40
1.0
 40
2.0
 40
2.0
 40
2.0
 40
3.0
 40
3.0
 40
3.0
 40
4.0
 40
4.0
 40
4.0
 40
5.0
 40
5.0
 40
5.0
 40
6.0
 40
6.0
 40
6.0
 40
6.0
 10
363.9766451873072
 20
113.9572881476325
 30
0.0
 10
365.9100340490753
 20
113.9572881476325
 30
0.0
 10
367.4768645093963
 20
115.5244631177293
 30
0.0
 10
367.4768645093963
 20
117.4575074697216
 30
0.0
 10
367.4768645093963
 20
119.3905518217139
 30
0.0
 10
365.9100340490753
 20
120.9573822820349
 30
0.0
 10
363.9766451873072
 20
120.9573822820349
 30
0.0
 10
363.9766451873072
 20
120.9573822820349
 30
0.0
 10
359.9768866903136
 20
120.9573822820349
 30
0.0
 10
359.9768866903136
 20
120.9573822820349
 30
0.0
 10
358.0438423383213
 20
120.9573822820349
 30
0.0
 10
356.4766673682246
 20
119.3905518217139
 30
0.0
 10
356.4766673682246
 20
117.4575074697216
 30
0.0
 10
356.4766673682246
 20
115.5244631177293
 30
0.0
 10
358.0438423383213
 20
113.9572881476325
 30
0.0
 10
359.9768866903136
 20
113.9572881476325
 30
0.0
 10
359.9768866903136
 20
113.9572881476325
 30
0.0
 10
363.9766451873072
 20
113.9572881476325
 30
0.0
 10
363.9766451873072
 20
113.9572881476325
 30
0.0
  0
ENDBLK
  5
9C
330
99
100
AcDbEntity
  8
0
100
AcDbBlockEnd
  0
BLOCK
  5
A0
330
9E
100
AcDbEntity
  8
0
100
AcDbBlockBegin
  2
BLOCK_8
 70
     0
 71
     0
 10
0.0
 20
0.0
 30
0.0
  3
BLOCK_8
  1

  0
SPLINE
  5
A2
330
9E
100
AcDbEntity
  8
LASER_MASK
 62
   250
100
AcDbSpline
210
0.0
220
0.0
230
1.0
 70
    11
 71
     3
 72
    23
 73
    19
 74
     0
 42
0.0000000001
 43
0.0000000001
 40
0.0
 40
0.0
 40
0.0
 40
0.0
 40
1.0
 40
1.0
 40
1.0
 40
2.0
 40
2.0
 40
2.0
 40
3.0
 40
3.0
 40
3.0
 40
4.0
 40
4.0
 40
4.0
 40
5.0
 40
5.0
 40
5.0
 40
6.0
 40
6.0
 40
6.0
 40
6.0
 10
-102.0234695140532
 20
82.95726499216586
 30
0.0
 10
-100.0904251620609
 20
82.95726499216586
 30
0.0
 10
-98.52359470173995
 20
84.52443996226263
 30
0.0
 10
-98.52359470173995
 20
86.45748431425494
 30
0.0
 10
-98.52359470173995
 20
88.39052866624725
 30
0.0
 10
-100.0904251620609
 20
89.95735912656822
 30
0.0
 10
-102.0234695140532
 20
89.95735912656822
 30
0.0
 10
-102.0234695140532
 20
89.95735912656822
 30
0.0
 10
-106.0235725208226
 20
89.95735912656822
 30
0.0
 10
-106.0235725208226
 20
89.95735912656822
 30
0.0
 10
-107.9562723630391
 20
89.95735912656822
 30
0.0
 10
-109.5234473331358
 20
88.39052866624725
 30
0.0
 10
-109.5234473331358
 20
86.45748431425494
 30
0.0
 10
-109.5234473331358
 20
84.52443996226263
 30
0.0
 10
-107.9562723630391
 20
82.95726499216586
 30
0.0
 10
-106.0235725208226
 20
82.95726499216586
 30
0.0
 10
-106.0235725208226
 20
82.95726499216586
 30
0.0
 10
-102.0234695140532
 20
82.95726499216586
 30
0.0
 10
-102.0234695140532
 20
82.95726499216586
 30
0.0
  0
ENDBLK
  5
A1
330
9E
100
AcDbEntity
  8
0
100
AcDbBlockEnd
  0
BLOCK
  5
A5
330
A3
100
AcDbEntity
  8
0
100
AcDbBlockBegin
  2
BLOCK_9
 70
     0
 71
     0
 10
0.0
 20
0.0
 30
0.0
  3
BLOCK_9
  1

  0
SPLINE
  5
A7
330
A3
100
AcDbEntity
  8
LASER_MASK
 62
   250
100
AcDbSpline
210
0.0
220
0.0
230
1.0
 70
    11
 71
     3
 72
    23
 73
    19
 74
     0
 42
0.0000000001
 43
0.0000000001
 40
0.0
 40
0.0
 40
0.0
 40
0.0
 40
1.0
 40
1.0
 40
1.0
 40
2.0
 40
2.0
 40
2.0
 40
3.0
 40
3.0
 40
3.0
 40
4.0
 40
4.0
 40
4.0
 40
5.0
 40
5.0
 40
5.0
 40
6.0
 40
6.0
 40
6.0
 40
6.0
 10
363.9766451873072
 20
82.95726499216586
 30
0.0
 10
365.9100340490753
 20
82.95726499216586
 30
0.0
 10
367.4768645093963
 20
84.52443996226263
 30
0.0
 10
367.4768645093963
 20
86.45748431425494
 30
0.0
 10
367.4768645093963
 20
88.39052866624725
 30
0.0
 10
365.9100340490753
 20
89.95735912656822
 30
0.0
 10
363.9766451873072
 20
89.95735912656822
 30
0.0
 10
363.9766451873072
 20
89.95735912656822
 30
0.0
 10
359.9768866903136
 20
89.95735912656822
 30
0.0
 10
359.9768866903136
 20
89.95735912656822
 30
0.0
 10
358.0441868480971
 20
89.95735912656822
 30
0.0
 10
356.4766673682246
 20
88.39052866624725
 30
0.0
 10
356.4766673682246
 20
86.45748431425494
 30
0.0
 10
356.4766673682246
 20
84.52443996226263
 30
0.0
 10
358.0441868480971
 20
82.95726499216586
 30
0.0
 10
359.9768866903136
 20
82.95726499216586
 30
0.0
 10
359.9768866903136
 20
82.95726499216586
 30
0.0
 10
363.9766451873072
 20
82.95726499216586
 30
0.0
 10
363.9766451873072
 20
82.95726499216586
 30
0.0
  0
ENDBLK
  5
A6
330
A3
100
AcDbEntity
  8
0
100
AcDbBlockEnd
  0
BLOCK
  5
AA
330
A8
100
AcDbEntity
  8
0
100
AcDbBlockBegin
  2
BLOCK_10
 70
     0
 71
     0
 10
0.0
 20
0.0
 30
0.0
  3
BLOCK_10
  1

  0
SPLINE
  5
AC
330
A8
100
AcDbEntity
  8
LASER_MASK
 62
   250
100
AcDbSpline
210
0.0
220
0.0
230
1.0
 70
    11
 71
     3
 72
    23
 73
    19
 74
     0
 42
0.0000000001
 43
0.0000000001
 40
0.0
 40
0.0
 40
0.0
 40
0.0
 40
1.0
 40
1.0
 40
1.0
 40
2.0
 40
2.0
 40
2.0
 40
3.0
 40
3.0
 40
3.0
 40
4.0
 40
4.0
 40
4.0
 40
5.0
 40
5.0
 40
5.0
 40
6.0
 40
6.0
 40
6.0
 40
6.0
 10
-102.0234695140532
 20
113.9572881476325
 30
0.0
 10
-100.0904251620609
 20
113.9572881476325
 30
0.0
 10
-98.52359470173995
 20
115.5244631177293
 30
0.0
 10
-98.52359470173995
 20
117.4575074697216
 30
0.0
 10
-98.52359470173995
 20
119.3905518217139
 30
0.0
 10
-100.0904251620609
 20
120.9573822820349
 30
0.0
 10
-102.0234695140532
 20
120.9573822820349
 30
0.0
 10
-102.0234695140532
 20
120.9573822820349
 30
0.0
 10
-106.0235725208226
 20
120.9573822820349
 30
0.0
 10
-106.0235725208226
 20
120.9573822820349
 30
0.0
 10
-107.9562723630391
 20
120.9573822820349
 30
0.0
 10
-109.5234473331358
 20
119.3905518217139
 30
0.0
 10
-109.5234473331358
 20
117.4575074697216
 30
0.0
 10
-109.5234473331358
 20
115.5244631177293
 30
0.0
 10
-107.9562723630391
 20
113.9572881476325
 30
0.0
 10
-106.0235725208226
 20
113.9572881476325
 30
0.0
 10
-106.0235725208226
 20
113.9572881476325
 30
0.0
 10
-102.0234695140532
 20
113.9572881476325
 30
0.0
 10
-102.0234695140532
 20
113.9572881476325
 30
0.0
  0
ENDBLK
  5
AB
330
A8
100
AcDbEntity
  8
0
100
AcDbBlockEnd
  0
BLOCK
  5
B0
330
AE
100
AcDbEntity
  8
0
100
AcDbBlockBegin
  2
BLOCK_11
 70
     0
 71
     0
 10
0.0
 20
0.0
 30
0.0
  3
BLOCK_11
  1

  0
SPLINE
  5
B2
330
AE
100
AcDbEntity
  8
LASER_MASK
 62
   250
100
AcDbSpline
210
0.0
220
0.0
230
1.0
 70
    11
 71
     3
 72
    17
 73
    13
 74
     0
 42
0.0000000001
 43
0.0000000001
 40
0.0
 40
0.0
 40
0.0
 40
0.0
 40
1.0
 40
1.0
 40
1.0
 40
2.0
 40
2.0
 40
2.0
 40
3.0
 40
3.0
 40
3.0
 40
4.0
 40
4.0
 40
4.0
 40
4.0
 10
38.59112381024735
 20
116.2148607084248
 30
0.0
 10
38.05868395175437
 20
115.5802737014083
 30
0.0
 10
37.11231559764229
 20
115.4972468454414
 30
0.0
 10
36.47772859062574
 20
116.0298589588223
 30
0.0
 10
35.8429693287213
 20
116.5624710722032
 30
0.0
 10
35.76045923741813
 20
117.5088394263152
 30
0.0
 10
36.2928990959111
 20
118.143081923556
 30
0.0
 10
36.82533895440408
 20
118.7776689305725
 30
0.0
 10
37.77153505362826
 20
118.8606957865394
 30
0.0
 10
38.4061220606448
 20
118.3280836731585
 30
0.0
 10
39.04070906766135
 20
117.7954715597776
 30
0.0
 10
39.12356366874032
 20
116.8494477154414
 30
0.0
 10
38.59112381024735
 20
116.2148607084248
 30
0.0
  0
SPLINE
  5
B3
330
AE
100
AcDbEntity
  8
LASER_MASK
 62
   250
100
AcDbSpline
210
0.0
220
0.0
230
1.0
 70
    11
 71
     3
 72
    17
 73
    13
 74
     0
 42
0.0000000001
 43
0.0000000001
 40
0.0
 40
0.0
 40
0.0
 40
0.0
 40
1.0
 40
1.0
 40
1.0
 40
2.0
 40
2.0
 40
2.0
 40
3.0
 40
3.0
 40
3.0
 40
4.0
 40
4.0
 40
4.0
 40
4.0
 10
42.64342004804978
 20
110.5755801884173
 30
0.0
 10
41.92597843995426
 20
110.1611349281345
 30
0.0
 10
41.00820439723326
 20
110.4067703982772
 30
0.0
 10
40.59410364672627
 20
111.1243842612606
 30
0.0
 10
40.17983064133138
 20
111.8419981242441
 30
0.0
 10
40.42598287613774
 20
112.7594276571892
 30
0.0
 10
41.14325222934536
 20
113.1735284076962
 30
0.0
 10
41.86052158255298
 20
113.5876291582032
 30
0.0
 10
42.77812337038608
 20
113.3419936880606
 30
0.0
 10
43.19222412089308
 20
112.6243798250772
 30
0.0
 10
43.60649712628797
 20
111.9071104718695
 30
0.0
 10
43.3606894012574
 20
110.9896809389243
 30
0.0
 10
42.64342004804978
 20
110.5755801884173
 30
0.0
  0
SPLINE
  5
B4
330
AE
100
AcDbEntity
  8
LASER_MASK
 62
   250
100
AcDbSpline
210
0.0
220
0.0
230
1.0
 70
    11
 71
     3
 72
    17
 73
    13
 74
     0
 42
0.0000000001
 43
0.0000000001
 40
0.0
 40
0.0
 40
0.0
 40
0.0
 40
1.0
 40
1.0
 40
1.0
 40
2.0
 40
2.0
 40
2.0
 40
3.0
 40
3.0
 40
3.0
 40
4.0
 40
4.0
 40
4.0
 40
4.0
 10
44.52254862012998
 20
103.8903679890927
 30
0.0
 10
43.70657721615676
 20
103.7460183930341
 30
0.0
 10
42.92815737774531
 20
104.2910328583436
 30
0.0
 10
42.78449680123831
 20
105.1068320074289
 30
0.0
 10
42.64066396984341
 20
105.9229756662901
 30
0.0
 10
43.18567843515295
 20
106.7008787400378
 30
0.0
 10
44.00130532935038
 20
106.8445393165448
 30
0.0
 10
44.81693222354781
 20
106.9885444028276
 30
0.0
 10
45.59517980707135
 20
106.4438744472939
 30
0.0
 10
45.73901263846626
 20
105.6277307884328
 30
0.0
 10
45.88284546986115
 20
104.8122761491232
 30
0.0
 10
45.33817551432741
 20
104.0340285655997
 30
0.0
 10
44.52254862012998
 20
103.8903679890927
 30
0.0
  0
ENDBLK
  5
B1
330
AE
100
AcDbEntity
  8
0
100
AcDbBlockEnd
  0
BLOCK
  5
B7
330
B5
100
AcDbEntity
  8
0
100
AcDbBlockBegin
  2
BLOCK_12
 70
     0
 71
     0
 10
0.0
 20
0.0
 30
0.0
  3
BLOCK_12
  1

  0
SPLINE
  5
B9
330
B5
100
AcDbEntity
  8
LASER_MASK
 62
   250
100
AcDbSpline
210
0.0
220
0.0
230
1.0
 70
    11
 71
     3
 72
    17
 73
    13
 74
     0
 42
0.0000000001
 43
0.0000000001
 40
0.0
 40
0.0
 40
0.0
 40
0.0
 40
1.0
 40
1.0
 40
1.0
 40
2.0
 40
2.0
 40
2.0
 40
3.0
 40
3.0
 40
3.0
 40
4.0
 40
4.0
 40
4.0
 40
4.0
 10
87.58782088864217
 20
116.2148607084248
 30
0.0
 10
87.05538103014919
 20
115.5802737014083
 30
0.0
 10
86.10901267603711
 20
115.4972468454414
 30
0.0
 10
85.47442566902058
 20
116.0298589588223
 30
0.0
 10
84.83966640711613
 20
116.5624710722032
 30
0.0
 10
84.75715631581295
 20
117.5088394263152
 30
0.0
 10
85.28959617430593
 20
118.143081923556
 30
0.0
 10
85.8220360327989
 20
118.7776689305725
 30
0.0
 10
86.76823213202309
 20
118.8606957865394
 30
0.0
 10
87.40281913903964
 20
118.3280836731585
 30
0.0
 10
88.03740614605617
 20
117.7954715597776
 30
0.0
 10
88.12026074713515
 20
116.8494477154414
 30
0.0
 10
87.58782088864217
 20
116.2148607084248
 30
0.0
  0
SPLINE
  5
BA
330
B5
100
AcDbEntity
  8
LASER_MASK
 62
   250
100
AcDbSpline
210
0.0
220
0.0
230
1.0
 70
    11
 71
     3
 72
    17
 73
    13
 74
     0
 42
0.0000000001
 43
0.0000000001
 40
0.0
 40
0.0
 40
0.0
 40
0.0
 40
1.0
 40
1.0
 40
1.0
 40
2.0
 40
2.0
 40
2.0
 40
3.0
 40
3.0
 40
3.0
 40
4.0
 40
4.0
 40
4.0
 40
4.0
 10
91.64011712644461
 20
110.5755801884173
 30
0.0
 10
90.92267551834908
 20
110.1611349281345
 30
0.0
 10
90.00490147562809
 20
110.4067703982772
 30
0.0
 10
89.5908007251211
 20
111.1243842612606
 30
0.0
 10
89.17652771972621
 20
111.8419981242441
 30
0.0
 10
89.42267995453257
 20
112.7594276571892
 30
0.0
 10
90.1399493077402
 20
113.1735284076962
 30
0.0
 10
90.85721866094781
 20
113.5876291582032
 30
0.0
 10
91.77482044878091
 20
113.3419936880606
 30
0.0
 10
92.1889211992879
 20
112.6243798250772
 30
0.0
 10
92.6031942046828
 20
111.9071104718695
 30
0.0
 10
92.35738647965223
 20
110.9896809389243
 30
0.0
 10
91.64011712644461
 20
110.5755801884173
 30
0.0
  0
SPLINE
  5
BB
330
B5
100
AcDbEntity
  8
LASER_MASK
 62
   250
100
AcDbSpline
210
0.0
220
0.0
230
1.0
 70
    11
 71
     3
 72
    17
 73
    13
 74
     0
 42
0.0000000001
 43
0.0000000001
 40
0.0
 40
0.0
 40
0.0
 40
0.0
 40
1.0
 40
1.0
 40
1.0
 40
2.0
 40
2.0
 40
2.0
 40
3.0
 40
3.0
 40
3.0
 40
4.0
 40
4.0
 40
4.0
 40
4.0
 10
93.51924569852481
 20
103.8903679890927
 30
0.0
 10
92.70327429455159
 20
103.7460183930341
 30
0.0
 10
91.92485445614014
 20
104.2910328583436
 30
0.0
 10
91.78119387963314
 20
105.1068320074289
 30
0.0
 10
91.63736104823823
 20
105.9229756662901
 30
0.0
 10
92.18237551354778
 20
106.7008787400378
 30
0.0
 10
92.9980024077452
 20
106.8445393165448
 30
0.0
 10
93.81362930194264
 20
106.9885444028276
 30
0.0
 10
94.59187688546618
 20
106.4438744472939
 30
0.0
 10
94.73570971686108
 20
105.6277307884328
 30
0.0
 10
94.87954254825598
 20
104.8122761491232
 30
0.0
 10
94.33487259272223
 20
104.0340285655997
 30
0.0
 10
93.51924569852481
 20
103.8903679890927
 30
0.0
  0
SPLINE
  5
BC
330
B5
100
AcDbEntity
  8
LASER_MASK
 62
   250
100
AcDbSpline
210
0.0
220
0.0
230
1.0
 70
    11
 71
     3
 72
    17
 73
    13
 74
     0
 42
0.0000000001
 43
0.0000000001
 40
0.0
 40
0.0
 40
0.0
 40
0.0
 40
1.0
 40
1.0
 40
1.0
 40
2.0
 40
2.0
 40
2.0
 40
3.0
 40
3.0
 40
3.0
 40
4.0
 40
4.0
 40
4.0
 40
4.0
 10
92.9985191724089
 20
96.96572149558969
 30
0.0
 10
92.18237551354778
 20
97.10903756232089
 30
0.0
 10
91.63736104823823
 20
97.88728514584443
 30
0.0
 10
91.78136613452104
 20
98.70308429492977
 30
0.0
 10
91.92537122080384
 20
99.51922795379089
 30
0.0
 10
92.70344654943948
 20
100.0638979093246
 30
0.0
 10
93.51907344363691
 20
99.91989282304183
 30
0.0
 10
94.33470033783435
 20
99.77623224653483
 30
0.0
 10
94.87971480314388
 20
98.99832917278708
 30
0.0
 10
94.73570971686108
 20
98.18218551392596
 30
0.0
 10
94.59204914035408
 20
97.36673087461642
 30
0.0
 10
93.81414606660633
 20
96.82171640930689
 30
0.0
 10
92.9985191724089
 20
96.96572149558969
 30
0.0
  0
SPLINE
  5
BD
330
B5
100
AcDbEntity
  8
LASER_MASK
 62
   250
100
AcDbSpline
210
0.0
220
0.0
230
1.0
 70
    11
 71
     3
 72
    17
 73
    13
 74
     0
 42
0.0000000001
 43
0.0000000001
 40
0.0
 40
0.0
 40
0.0
 40
0.0
 40
1.0
 40
1.0
 40
1.0
 40
2.0
 40
2.0
 40
2.0
 40
3.0
 40
3.0
 40
3.0
 40
4.0
 40
4.0
 40
4.0
 40
4.0
 10
90.14081058217968
 20
90.63673240443826
 30
0.0
 10
89.42285220942047
 20
91.05048864516947
 30
0.0
 10
89.176872229502
 20
91.96826268789046
 30
0.0
 10
89.59131748978479
 20
92.68553204109809
 30
0.0
 10
90.00576275006759
 20
93.4031459040815
 30
0.0
 10
90.92319228301278
 20
93.64878137422417
 30
0.0
 10
91.64028938133251
 20
93.23468062371718
 30
0.0
 10
92.35755873454013
 20
92.82057987321018
 30
0.0
 10
92.6037109693465
 20
91.90315034026499
 30
0.0
 10
92.1892657090637
 20
91.18553647728156
 30
0.0
 10
91.7753372134446
 20
90.46861163384973
 30
0.0
 10
90.85807993538731
 20
90.22228714415547
 30
0.0
 10
90.14081058217968
 20
90.63673240443826
 30
0.0
  0
SPLINE
  5
BE
330
B5
100
AcDbEntity
  8
LASER_MASK
 62
   250
100
AcDbSpline
210
0.0
220
0.0
230
1.0
 70
    11
 71
     3
 72
    17
 73
    13
 74
     0
 42
0.0000000001
 43
0.0000000001
 40
0.0
 40
0.0
 40
0.0
 40
0.0
 40
1.0
 40
1.0
 40
1.0
 40
2.0
 40
2.0
 40
2.0
 40
3.0
 40
3.0
 40
3.0
 40
4.0
 40
4.0
 40
4.0
 40
4.0
 10
85.29080195852121
 20
85.66683437880273
 30
0.0
 10
84.75767308047665
 20
86.30107687604348
 30
0.0
 10
84.84035542666773
 20
87.24778973993135
 30
0.0
 10
85.47528694346006
 20
87.78005734353643
 30
0.0
 10
86.11004620536451
 20
88.31232494714152
 30
0.0
 10
87.05624230458868
 20
88.22929809117464
 30
0.0
 10
87.58833765330587
 20
87.59505559393389
 30
0.0
 10
88.12077751179885
 20
86.96046858691734
 30
0.0
 10
88.03826742049566
 20
86.01444474258106
 30
0.0
 10
87.40350815859122
 20
85.48183262920018
 30
0.0
 10
86.76926566135047
 20
84.9495650255951
 30
0.0
 10
85.82306956212629
 20
85.0319028620104
 30
0.0
 10
85.29080195852121
 20
85.66683437880273
 30
0.0
  0
ENDBLK
  5
B8
330
B5
100
AcDbEntity
  8
0
100
AcDbBlockEnd
  0
BLOCK
  5
C1
330
BF
100
AcDbEntity
  8
0
100
AcDbBlockBegin
  2
BLOCK_13
 70
     0
 71
     0
 10
0.0
 20
0.0
 30
0.0
  3
BLOCK_13
  1

  0
SPLINE
  5
C3
330
BF
100
AcDbEntity
  8
LASER_MASK
 62
   250
100
AcDbSpline
210
0.0
220
0.0
230
1.0
 70
    11
 71
     3
 72
    17
 73
    13
 74
     0
 42
0.0000000001
 43
0.0000000001
 40
0.0
 40
0.0
 40
0.0
 40
0.0
 40
1.0
 40
1.0
 40
1.0
 40
2.0
 40
2.0
 40
2.0
 40
3.0
 40
3.0
 40
3.0
 40
4.0
 40
4.0
 40
4.0
 40
4.0
 10
136.584517967037
 20
116.2148607084248
 30
0.0
 10
136.052078108544
 20
115.5802737014083
 30
0.0
 10
135.105709754432
 20
115.4972468454414
 30
0.0
 10
134.4711227474154
 20
116.0298589588223
 30
0.0
 10
133.836363485511
 20
116.5624710722032
 30
0.0
 10
133.7538533942078
 20
117.5088394263152
 30
0.0
 10
134.2862932527007
 20
118.143081923556
 30
0.0
 10
134.8187331111937
 20
118.7776689305725
 30
0.0
 10
135.7649292104179
 20
118.8606957865394
 30
0.0
 10
136.3995162174345
 20
118.3280836731585
 30
0.0
 10
137.034103224451
 20
117.7954715597776
 30
0.0
 10
137.11695782553
 20
116.8494477154414
 30
0.0
 10
136.584517967037
 20
116.2148607084248
 30
0.0
  0
SPLINE
  5
C4
330
BF
100
AcDbEntity
  8
LASER_MASK
 62
   250
100
AcDbSpline
210
0.0
220
0.0
230
1.0
 70
    11
 71
     3
 72
    17
 73
    13
 74
     0
 42
0.0000000001
 43
0.0000000001
 40
0.0
 40
0.0
 40
0.0
 40
0.0
 40
1.0
 40
1.0
 40
1.0
 40
2.0
 40
2.0
 40
2.0
 40
3.0
 40
3.0
 40
3.0
 40
4.0
 40
4.0
 40
4.0
 40
4.0
 10
140.6368142048394
 20
110.5755801884173
 30
0.0
 10
139.9193725967439
 20
110.1611349281345
 30
0.0
 10
139.0015985540229
 20
110.4067703982772
 30
0.0
 10
138.5874978035159
 20
111.1243842612606
 30
0.0
 10
138.173224798121
 20
111.8419981242441
 30
0.0
 10
138.4193770329274
 20
112.7594276571892
 30
0.0
 10
139.136646386135
 20
113.1735284076962
 30
0.0
 10
139.8539157393427
 20
113.5876291582032
 30
0.0
 10
140.7715175271757
 20
113.3419936880606
 30
0.0
 10
141.1856182776827
 20
112.6243798250772
 30
0.0
 10
141.5998912830776
 20
111.9071104718695
 30
0.0
 10
141.3540835580471
 20
110.9896809389243
 30
0.0
 10
140.6368142048394
 20
110.5755801884173
 30
0.0
  0
SPLINE
  5
C5
330
BF
100
AcDbEntity
  8
LASER_MASK
 62
   250
100
AcDbSpline
210
0.0
220
0.0
230
1.0
 70
    11
 71
     3
 72
    17
 73
    13
 74
     0
 42
0.0000000001
 43
0.0000000001
 40
0.0
 40
0.0
 40
0.0
 40
0.0
 40
1.0
 40
1.0
 40
1.0
 40
2.0
 40
2.0
 40
2.0
 40
3.0
 40
3.0
 40
3.0
 40
4.0
 40
4.0
 40
4.0
 40
4.0
 10
142.5159427769196
 20
103.8903679890927
 30
0.0
 10
141.6999713729464
 20
103.7460183930341
 30
0.0
 10
140.921551534535
 20
104.2910328583436
 30
0.0
 10
140.777890958028
 20
105.1068320074289
 30
0.0
 10
140.6340581266331
 20
105.9229756662901
 30
0.0
 10
141.1790725919426
 20
106.7008787400378
 30
0.0
 10
141.99469948614
 20
106.8445393165448
 30
0.0
 10
142.8103263803375
 20
106.9885444028276
 30
0.0
 10
143.588573963861
 20
106.4438744472939
 30
0.0
 10
143.7324067952559
 20
105.6277307884328
 30
0.0
 10
143.8762396266508
 20
104.8122761491232
 30
0.0
 10
143.3315696711171
 20
104.0340285655997
 30
0.0
 10
142.5159427769196
 20
103.8903679890927
 30
0.0
  0
SPLINE
  5
C6
330
BF
100
AcDbEntity
  8
LASER_MASK
 62
   250
100
AcDbSpline
210
0.0
220
0.0
230
1.0
 70
    11
 71
     3
 72
    17
 73
    13
 74
     0
 42
0.0000000001
 43
0.0000000001
 40
0.0
 40
0.0
 40
0.0
 40
0.0
 40
1.0
 40
1.0
 40
1.0
 40
2.0
 40
2.0
 40
2.0
 40
3.0
 40
3.0
 40
3.0
 40
4.0
 40
4.0
 40
4.0
 40
4.0
 10
141.9952162508037
 20
96.96572149558969
 30
0.0
 10
141.1790725919426
 20
97.10903756232089
 30
0.0
 10
140.6340581266331
 20
97.88728514584443
 30
0.0
 10
140.7780632129159
 20
98.70308429492977
 30
0.0
 10
140.9220682991987
 20
99.51922795379089
 30
0.0
 10
141.7001436278343
 20
100.0638979093246
 30
0.0
 10
142.5157705220317
 20
99.91989282304183
 30
0.0
 10
143.3313974162292
 20
99.77623224653483
 30
0.0
 10
143.8764118815387
 20
98.99832917278708
 30
0.0
 10
143.7324067952559
 20
98.18218551392596
 30
0.0
 10
143.5887462187489
 20
97.36673087461642
 30
0.0
 10
142.8108431450012
 20
96.82171640930689
 30
0.0
 10
141.9952162508037
 20
96.96572149558969
 30
0.0
  0
SPLINE
  5
C7
330
BF
100
AcDbEntity
  8
LASER_MASK
 62
   250
100
AcDbSpline
210
0.0
220
0.0
230
1.0
 70
    11
 71
     3
 72
    17
 73
    13
 74
     0
 42
0.0000000001
 43
0.0000000001
 40
0.0
 40
0.0
 40
0.0
 40
0.0
 40
1.0
 40
1.0
 40
1.0
 40
2.0
 40
2.0
 40
2.0
 40
3.0
 40
3.0
 40
3.0
 40
4.0
 40
4.0
 40
4.0
 40
4.0
 10
139.1375076605745
 20
90.63673240443826
 30
0.0
 10
138.4195492878153
 20
91.05048864516947
 30
0.0
 10
138.1735693078968
 20
91.96826268789046
 30
0.0
 10
138.5880145681796
 20
92.68553204109809
 30
0.0
 10
139.0024598284624
 20
93.4031459040815
 30
0.0
 10
139.9198893614076
 20
93.64878137422417
 30
0.0
 10
140.6369864597273
 20
93.23468062371718
 30
0.0
 10
141.354255812935
 20
92.82057987321018
 30
0.0
 10
141.6004080477413
 20
91.90315034026499
 30
0.0
 10
141.1859627874585
 20
91.18553647728156
 30
0.0
 10
140.7720342918394
 20
90.46861163384973
 30
0.0
 10
139.8547770137821
 20
90.22228714415547
 30
0.0
 10
139.1375076605745
 20
90.63673240443826
 30
0.0
  0
ENDBLK
  5
C2
330
BF
100
AcDbEntity
  8
0
100
AcDbBlockEnd
  0
ENDSEC
  0
SECTION
  2
ENTITIES
  0
SPLINE
  5
4C
330
1F
100
AcDbEntity
  8
LASER_MASK
 62
   250
100
AcDbSpline
210
0.0
220
0.0
230
1.0
 70
    11
 71
     3
 72
    17
 73
    13
 74
     0
 42
0.0000000001
 43
0.0000000001
 40
0.0
 40
0.0
 40
0.0
 40
0.0
 40
1.0
 40
1.0
 40
1.0
 40
2.0
 40
2.0
 40
2.0
 40
3.0
 40
3.0
 40
3.0
 40
4.0
 40
4.0
 40
4.0
 40
4.0
 10
-59.22829290976524
 20
101.9049581511794
 30
0.0
 10
-59.22829290976524
 20
98.57251508990302
 30
0.0
 10
-61.9299385715588
 20
95.87086942810946
 30
0.0
 10
-65.26203712305934
 20
95.87086942810946
 30
0.0
 10
-68.59482469411148
 20
95.87086942810946
 30
0.0
 10
-71.29647035590504
 20
98.57251508990302
 30
0.0
 10
-71.29647035590504
 20
101.9049581511794
 30
0.0
 10
-71.29647035590504
 20
105.2377457222315
 30
0.0
 10
-68.59482469411148
 20
107.9390468742493
 30
0.0
 10
-65.26203712305934
 20
107.9390468742493
 30
0.0
 10
-61.9299385715588
 20
107.9390468742493
 30
0.0
 10
-59.22829290976524
 20
105.2377457222315
 30
0.0
 10
-59.22829290976524
 20
101.9049581511794
 30
0.0
  0
INSERT
  5
4E
330
1F
100
AcDbEntity
  8
LASER_MASK
100
AcDbBlockReference
  2
BLOCK_2
 10
0.0
 20
0.0
 30
0.0
  0
INSERT
  5
58
330
1F
100
AcDbEntity
  8
LASER_MASK
100
AcDbBlockReference
  2
BLOCK_3
 10
0.0
 20
0.0
 30
0.0
  0
INSERT
  5
66
330
1F
100
AcDbEntity
  8
LASER_MASK
100
AcDbBlockReference
  2
BLOCK_4
 10
0.0
 20
0.0
 30
0.0
  0
SPLINE
  5
73
330
1F
100
AcDbEntity
  8
LASER_MASK
 62
   250
100
AcDbSpline
210
0.0
220
0.0
230
1.0
 70
    11
 71
     3
 72
    17
 73
    13
 74
     0
 42
0.0000000001
 43
0.0000000001
 40
0.0
 40
0.0
 40
0.0
 40
0.0
 40
1.0
 40
1.0
 40
1.0
 40
2.0
 40
2.0
 40
2.0
 40
3.0
 40
3.0
 40
3.0
 40
4.0
 40
4.0
 40
4.0
 40
4.0
 10
255.6431346197713
 20
116.2148607084248
 30
0.0
 10
256.1757467331522
 20
115.5802737014083
 30
0.0
 10
257.1221150872643
 20
115.4972468454414
 30
0.0
 10
257.7567020942808
 20
116.0298589588223
 30
0.0
 10
258.3912891012973
 20
116.5624710722032
 30
0.0
 10
258.4739714474884
 20
117.5088394263152
 30
0.0
 10
257.9413593341075
 20
118.143081923556
 30
0.0
 10
257.4090917305024
 20
118.7776689305725
 30
0.0
 10
256.4627233763904
 20
118.8606957865394
 30
0.0
 10
255.8281363693739
 20
118.3280836731585
 30
0.0
 10
255.1935493623573
 20
117.7954715597776
 30
0.0
 10
255.1108670161662
 20
116.8494477154414
 30
0.0
 10
255.6431346197713
 20
116.2148607084248
 30
0.0
  0
SPLINE
  5
74
330
1F
100
AcDbEntity
  8
LASER_MASK
 62
   250
100
AcDbSpline
210
0.0
220
0.0
230
1.0
 70
    11
 71
     3
 72
    17
 73
    13
 74
     0
 42
0.0000000001
 43
0.0000000001
 40
0.0
 40
0.0
 40
0.0
 40
0.0
 40
1.0
 40
1.0
 40
1.0
 40
2.0
 40
2.0
 40
2.0
 40
3.0
 40
3.0
 40
3.0
 40
4.0
 40
4.0
 40
4.0
 40
4.0
 10
268.4099778912257
 20
116.2148607084248
 30
0.0
 10
268.9425900046066
 20
115.5802737014083
 30
0.0
 10
269.8889583587187
 20
115.4972468454414
 30
0.0
 10
270.5235453657352
 20
116.0298589588223
 30
0.0
 10
271.1581323727518
 20
116.5624710722032
 30
0.0
 10
271.2408147189428
 20
117.5088394263152
 30
0.0
 10
270.708202605562
 20
118.143081923556
 30
0.0
 10
270.1759350019569
 20
118.7776689305725
 30
0.0
 10
269.2295666478448
 20
118.8606957865394
 30
0.0
 10
268.5949796408283
 20
118.3280836731585
 30
0.0
 10
267.9603926338117
 20
117.7954715597776
 30
0.0
 10
267.8777102876206
 20
116.8494477154414
 30
0.0
 10
268.4099778912257
 20
116.2148607084248
 30
0.0
  0
SPLINE
  5
75
330
1F
100
AcDbEntity
  8
LASER_MASK
 62
   250
100
AcDbSpline
210
0.0
220
0.0
230
1.0
 70
    11
 71
     3
 72
    17
 73
    13
 74
     0
 42
0.0000000001
 43
0.0000000001
 40
0.0
 40
0.0
 40
0.0
 40
0.0
 40
1.0
 40
1.0
 40
1.0
 40
2.0
 40
2.0
 40
2.0
 40
3.0
 40
3.0
 40
3.0
 40
4.0
 40
4.0
 40
4.0
 40
4.0
 10
281.2539913524585
 20
116.2148607084248
 30
0.0
 10
281.7866034658394
 20
115.5802737014083
 30
0.0
 10
282.7329718199514
 20
115.4972468454414
 30
0.0
 10
283.367558826968
 20
116.0298589588223
 30
0.0
 10
284.0021458339845
 20
116.5624710722032
 30
0.0
 10
284.0848281801756
 20
117.5088394263152
 30
0.0
 10
283.5522160667948
 20
118.143081923556
 30
0.0
 10
283.0199484631897
 20
118.7776689305725
 30
0.0
 10
282.0735801090776
 20
118.8606957865394
 30
0.0
 10
281.438993102061
 20
118.3280836731585
 30
0.0
 10
280.8044060950445
 20
117.7954715597776
 30
0.0
 10
280.7217237488534
 20
116.8494477154414
 30
0.0
 10
281.2539913524585
 20
116.2148607084248
 30
0.0
  0
SPLINE
  5
76
330
1F
100
AcDbEntity
  8
LASER_MASK
 62
   250
100
AcDbSpline
210
0.0
220
0.0
230
1.0
 70
    11
 71
     3
 72
    17
 73
    13
 74
     0
 42
0.0000000001
 43
0.0000000001
 40
0.0
 40
0.0
 40
0.0
 40
0.0
 40
1.0
 40
1.0
 40
1.0
 40
2.0
 40
2.0
 40
2.0
 40
3.0
 40
3.0
 40
3.0
 40
4.0
 40
4.0
 40
4.0
 40
4.0
 10
29.88260569767179
 20
101.9001350143182
 30
0.0
 10
29.88260569767179
 20
98.99316152615013
 30
0.0
 10
27.52753687032918
 20
96.63809269880753
 30
0.0
 10
24.62056338216111
 20
96.63809269880753
 30
0.0
 10
21.71358989399303
 20
96.63809269880753
 30
0.0
 10
19.35783204709883
 20
98.99316152615013
 30
0.0
 10
19.35783204709883
 20
101.9001350143182
 30
0.0
 10
19.35783204709883
 20
104.8060749731589
 30
0.0
 10
21.71358989399303
 20
107.1623495847168
 30
0.0
 10
24.62056338216111
 20
107.1623495847168
 30
0.0
 10
27.52753687032918
 20
107.1623495847168
 30
0.0
 10
29.88260569767179
 20
104.8060749731589
 30
0.0
 10
29.88260569767179
 20
101.9001350143182
 30
0.0
  0
SPLINE
  5
77
330
1F
100
AcDbEntity
  8
LASER_MASK
 62
   250
100
AcDbSpline
210
0.0
220
0.0
230
1.0
 70
    11
 71
     3
 72
    17
 73
    13
 74
     0
 42
0.0000000001
 43
0.0000000001
 40
0.0
 40
0.0
 40
0.0
 40
0.0
 40
1.0
 40
1.0
 40
1.0
 40
2.0
 40
2.0
 40
2.0
 40
3.0
 40
3.0
 40
3.0
 40
4.0
 40
4.0
 40
4.0
 40
4.0
 10
225.883002147395
 20
101.9015130534214
 30
0.0
 10
225.883002147395
 20
98.99453956525332
 30
0.0
 10
223.5272443005009
 20
96.63912622813491
 30
0.0
 10
220.6209598318844
 20
96.63912622813491
 30
0.0
 10
217.7139863437163
 20
96.63912622813491
 30
0.0
 10
215.3582284968221
 20
98.99453956525332
 30
0.0
 10
215.3582284968221
 20
101.9015130534214
 30
0.0
 10
215.3582284968221
 20
104.8077975220379
 30
0.0
 10
217.7139863437163
 20
107.1638998787079
 30
0.0
 10
220.6209598318844
 20
107.1638998787079
 30
0.0
 10
223.5272443005009
 20
107.1638998787079
 30
0.0
 10
225.883002147395
 20
104.8077975220379
 30
0.0
 10
225.883002147395
 20
101.9015130534214
 30
0.0
  0
SPLINE
  5
78
330
1F
100
AcDbEntity
  8
LASER_MASK
 62
   250
100
AcDbSpline
210
0.0
220
0.0
230
1.0
 70
    11
 71
     3
 72
    17
 73
    13
 74
     0
 42
0.0000000001
 43
0.0000000001
 40
0.0
 40
0.0
 40
0.0
 40
0.0
 40
1.0
 40
1.0
 40
1.0
 40
2.0
 40
2.0
 40
2.0
 40
3.0
 40
3.0
 40
3.0
 40
4.0
 40
4.0
 40
4.0
 40
4.0
 10
274.8829720686599
 20
101.9001350143182
 30
0.0
 10
274.8829720686599
 20
98.99316152615013
 30
0.0
 10
272.5272142217657
 20
96.63774818903173
 30
0.0
 10
269.6209297531493
 20
96.63774818903173
 30
0.0
 10
266.7139562649812
 20
96.63774818903173
 30
0.0
 10
264.3578539083112
 20
98.99316152615013
 30
0.0
 10
264.3578539083112
 20
101.9001350143182
 30
0.0
 10
264.3578539083112
 20
104.8064194829347
 30
0.0
 10
266.7139562649812
 20
107.1625218396047
 30
0.0
 10
269.6209297531493
 20
107.1625218396047
 30
0.0
 10
272.5272142217657
 20
107.1625218396047
 30
0.0
 10
274.8829720686599
 20
104.8064194829347
 30
0.0
 10
274.8829720686599
 20
101.9001350143182
 30
0.0
  0
SPLINE
  5
79
330
1F
100
AcDbEntity
  8
LASER_MASK
 62
   250
100
AcDbSpline
210
0.0
220
0.0
230
1.0
 70
    11
 71
     3
 72
    17
 73
    13
 74
     0
 42
0.0000000001
 43
0.0000000001
 40
0.0
 40
0.0
 40
0.0
 40
0.0
 40
1.0
 40
1.0
 40
1.0
 40
2.0
 40
2.0
 40
2.0
 40
3.0
 40
3.0
 40
3.0
 40
4.0
 40
4.0
 40
4.0
 40
4.0
 10
323.8794968921669
 20
101.9001350143182
 30
0.0
 10
323.8794968921669
 20
98.99316152615013
 30
0.0
 10
321.5237390452727
 20
96.63774818903173
 30
0.0
 10
318.6174545766562
 20
96.63774818903173
 30
0.0
 10
315.7104810884881
 20
96.63774818903173
 30
0.0
 10
313.3543787318181
 20
98.99316152615013
 30
0.0
 10
313.3543787318181
 20
101.9001350143182
 30
0.0
 10
313.3543787318181
 20
104.8064194829347
 30
0.0
 10
315.7104810884881
 20
107.1625218396047
 30
0.0
 10
318.6174545766562
 20
107.1625218396047
 30
0.0
 10
321.5237390452727
 20
107.1625218396047
 30
0.0
 10
323.8794968921669
 20
104.8064194829347
 30
0.0
 10
323.8794968921669
 20
101.9001350143182
 30
0.0
  0
SPLINE
  5
7A
330
1F
100
AcDbEntity
  8
LASER_MASK
 62
   250
100
AcDbSpline
210
0.0
220
0.0
230
1.0
 70
    11
 71
     3
 72
    17
 73
    13
 74
     0
 42
0.0000000001
 43
0.0000000001
 40
0.0
 40
0.0
 40
0.0
 40
0.0
 40
1.0
 40
1.0
 40
1.0
 40
2.0
 40
2.0
 40
2.0
 40
3.0
 40
3.0
 40
3.0
 40
4.0
 40
4.0
 40
4.0
 40
4.0
 10
78.88223110916088
 20
101.9001350143182
 30
0.0
 10
78.88223110916088
 20
98.99316152615013
 30
0.0
 10
76.52716228181828
 20
96.63809269880753
 30
0.0
 10
73.6201887936502
 20
96.63809269880753
 30
0.0
 10
70.71321530548212
 20
96.63809269880753
 30
0.0
 10
68.35745745858793
 20
98.99316152615013
 30
0.0
 10
68.35745745858793
 20
101.9001350143182
 30
0.0
 10
68.35745745858793
 20
104.8064194829347
 30
0.0
 10
70.71321530548212
 20
107.1625218396047
 30
0.0
 10
73.6201887936502
 20
107.1625218396047
 30
0.0
 10
76.52716228181828
 20
107.1625218396047
 30
0.0
 10
78.88223110916088
 20
104.8064194829347
 30
0.0
 10
78.88223110916088
 20
101.9001350143182
 30
0.0
  0
INSERT
  5
7C
330
1F
100
AcDbEntity
  8
LASER_MASK
100
AcDbBlockReference
  2
BLOCK_5
 10
0.0
 20
0.0
 30
0.0
  0
SPLINE
  5
85
330
1F
100
AcDbEntity
  8
LASER_MASK
 62
   250
100
AcDbSpline
210
0.0
220
0.0
230
1.0
 70
    11
 71
     3
 72
    17
 73
    13
 74
     0
 42
0.0000000001
 43
0.0000000001
 40
0.0
 40
0.0
 40
0.0
 40
0.0
 40
1.0
 40
1.0
 40
1.0
 40
2.0
 40
2.0
 40
2.0
 40
3.0
 40
3.0
 40
3.0
 40
4.0
 40
4.0
 40
4.0
 40
4.0
 10
-19.11099079274087
 20
101.9001350143182
 30
0.0
 10
-19.11099079274087
 20
98.99316152615013
 30
0.0
 10
-21.46605962008348
 20
96.63809269880753
 30
0.0
 10
-24.37303310825156
 20
96.63809269880753
 30
0.0
 10
-27.28000659641963
 20
96.63809269880753
 30
0.0
 10
-29.63576444331383
 20
98.99316152615013
 30
0.0
 10
-29.63576444331383
 20
101.9001350143182
 30
0.0
 10
-29.63576444331383
 20
104.8064194829347
 30
0.0
 10
-27.28000659641963
 20
107.1625218396047
 30
0.0
 10
-24.37303310825156
 20
107.1625218396047
 30
0.0
 10
-21.46605962008348
 20
107.1625218396047
 30
0.0
 10
-19.11099079274087
 20
104.8064194829347
 30
0.0
 10
-19.11099079274087
 20
101.9001350143182
 30
0.0
  0
SPLINE
  5
86
330
1F
100
AcDbEntity
  8
LASER_MASK
 62
   250
100
AcDbSpline
210
0.0
220
0.0
230
1.0
 70
    11
 71
     3
 72
    17
 73
    13
 74
     0
 42
0.0000000001
 43
0.0000000001
 40
0.0
 40
0.0
 40
0.0
 40
0.0
 40
1.0
 40
1.0
 40
1.0
 40
2.0
 40
2.0
 40
2.0
 40
3.0
 40
3.0
 40
3.0
 40
4.0
 40
4.0
 40
4.0
 40
4.0
 10
127.88185652065
 20
101.9008240338698
 30
0.0
 10
127.88185652065
 20
98.99385054570173
 30
0.0
 10
125.5267876933074
 20
96.63878171835911
 30
0.0
 10
122.6198142051393
 20
96.63878171835911
 30
0.0
 10
119.7128407169712
 20
96.63878171835911
 30
0.0
 10
117.357082870077
 20
98.99385054570173
 30
0.0
 10
117.357082870077
 20
101.9008240338698
 30
0.0
 10
117.357082870077
 20
104.8071085024863
 30
0.0
 10
119.7128407169712
 20
107.1632108591563
 30
0.0
 10
122.6198142051393
 20
107.1632108591563
 30
0.0
 10
125.5267876933074
 20
107.1632108591563
 30
0.0
 10
127.88185652065
 20
104.8071085024863
 30
0.0
 10
127.88185652065
 20
101.9008240338698
 30
0.0
  0
SPLINE
  5
87
330
1F
100
AcDbEntity
  8
LASER_MASK
 62
   250
100
AcDbSpline
210
0.0
220
0.0
230
1.0
 70
    11
 71
     3
 72
    17
 73
    13
 74
     0
 42
0.0000000001
 43
0.0000000001
 40
0.0
 40
0.0
 40
0.0
 40
0.0
 40
1.0
 40
1.0
 40
1.0
 40
2.0
 40
2.0
 40
2.0
 40
3.0
 40
3.0
 40
3.0
 40
4.0
 40
4.0
 40
4.0
 40
4.0
 10
176.8819986968028
 20
101.9015130534214
 30
0.0
 10
176.8819986968028
 20
98.99453956525332
 30
0.0
 10
174.5269298694602
 20
96.63947073791071
 30
0.0
 10
171.6199563812921
 20
96.63947073791071
 30
0.0
 10
168.712982893124
 20
96.63947073791071
 30
0.0
 10
166.3572250462298
 20
98.99453956525332
 30
0.0
 10
166.3572250462298
 20
101.9015130534214
 30
0.0
 10
166.3572250462298
 20
104.8081420318137
 30
0.0
 10
168.712982893124
 20
107.1640721335958
 30
0.0
 10
171.6199563812921
 20
107.1640721335958
 30
0.0
 10
174.5269298694602
 20
107.1640721335958
 30
0.0
 10
176.8819986968028
 20
104.8081420318137
 30
0.0
 10
176.8819986968028
 20
101.9015130534214
 30
0.0
  0
INSERT
  5
89
330
1F
100
AcDbEntity
  8
LASER_MASK
100
AcDbBlockReference
  2
BLOCK_6
 10
0.0
 20
0.0
 30
0.0
  0
MTEXT
  5
AD
330
1F
100
AcDbEntity
  8
LASER_MASK
 62
   250
100
AcDbMText
 10
360.8333379929429
 20
100.9237943097119
 30
0.0
 40
2.638779517906271
 41
0.0
 71
     7
 72
     1
  1
\fCopperplate Gothic Light|b0|i0|c0|p34;\W1;\U+2211
  0
INSERT
  5
AF
330
1F
100
AcDbEntity
  8
LASER_MASK
100
AcDbBlockReference
  2
BLOCK_11
 10
0.0
 20
0.0
 30
0.0
  0
INSERT
  5
B6
330
1F
100
AcDbEntity
  8
LASER_MASK
100
AcDbBlockReference
  2
BLOCK_12
 10
0.0
 20
0.0
 30
0.0
  0
INSERT
  5
C0
330
1F
100
AcDbEntity
  8
LASER_MASK
100
AcDbBlockReference
  2
BLOCK_13
 10
0.0
 20
0.0
 30
0.0
  0
ENDSEC
  0
SECTION
  2
OBJECTS
  0
DICTIONARY
  5
C
330
0
100
AcDbDictionary
  3
ACAD_GROUP
350
D
  3
ACAD_LAYOUT
350
1A
  3
ACAD_MLINESTYLE
350
17
  3
ACAD_PLOTSETTINGS
350
19
  3
ACAD_TABLESTYLE
350
CB
  3
ACAD_VISUALSTYLE
350
2A
1001
ACAD
1000
TREAT_AS_HARD
1070
     0
  0
DICTIONARY
  5
D
102
{ACAD_REACTORS
330
C
102
}
330
C
100
AcDbDictionary
1001
ACAD
1000
TREAT_AS_HARD
1070
     0
  0
DICTIONARY
  5
1A
102
{ACAD_REACTORS
330
C
102
}
330
C
100
AcDbDictionary
1001
ACAD
1000
TREAT_AS_HARD
1070
     0
  0
DICTIONARY
  5
17
102
{ACAD_REACTORS
330
C
102
}
330
C
100
AcDbDictionary
  3
STANDARD
350
18
1001
ACAD
1000
TREAT_AS_HARD
1070
     0
  0
DICTIONARY
  5
19
102
{ACAD_REACTORS
330
C
102
}
330
C
100
AcDbDictionary
1001
ACAD
1000
TREAT_AS_HARD
1070
     0
  0
DICTIONARY
  5
CB
102
{ACAD_REACTORS
330
C
102
}
330
C
100
AcDbDictionary
1001
ACAD
1000
TREAT_AS_HARD
1070
     0
  0
DICTIONARY
  5
2A
102
{ACAD_REACTORS
330
C
102
}
330
C
100
AcDbDictionary
  3
2DWIREFRAME
350
2F
  3
3DWIREFRAME
350
30
  3
3D_HIDDEN
350
31
  3
BASIC
350
32
  3
BRIGHTEN
350
36
  3
COLORCHANGE
350
3A
  3
CONCEPTUAL
350
34
  3
DIM
350
35
  3
FACEPATTERN
350
39
  3
FLAT
350
2B
  3
FLATWITHEDGES
350
2C
  3
GOURAUD
350
2D
  3
GOURAUDWITHEDGES
350
2E
  3
LINEPATTERN
350
38
  3
REALISTIC
350
33
  3
THICKEN
350
37
1001
ACAD
1000
TREAT_AS_HARD
1070
     0
  0
MLINESTYLE
  5
18
102
{ACAD_REACTORS
330
17
102
}
330
17
100
AcDbMlineStyle
  2
Standard
 70
     0
  3

 62
   256
 51
90.0
 52
90.0
 71
     2
 49
0.5
 62
   256
  6
BYLAYER
 49
-0.5
 62
   256
  6
BYLAYER
  0
VISUALSTYLE
  5
2F
102
{ACAD_REACTORS
330
2A
102
}
330
2A
100
AcDbVisualStyle
  2
2dWireframe
 70
     4
 71
     0
 72
     2
 73
     0
 90
        0
 40
-0.6
 41
-30.0
 62
     5
 63
     7
 74
     1
 91
        4
 64
     7
 65
   257
 75
     1
175
     1
 42
1.0
 92
        0
 66
   257
 43
1.0
 76
     1
 77
     6
 78
     2
 67
     7
 79
     5
170
     0
171
     0
290
     0
174
     0
 93
        1
 44
0.0
173
     0
291
     0
 45
0.0
1001
ACAD
1000
AcDbSavedByObjectVersion
1070
     0
  0
VISUALSTYLE
  5
30
102
{ACAD_REACTORS
330
2A
102
}
330
2A
100
AcDbVisualStyle
  2
3dWireframe
 70
     5
 71
     0
 72
     2
 73
     0
 90
        0
 40
-0.6
 41
-30.0
 62
     5
 63
     7
 74
     1
 91
        4
 64
     7
 65
   257
 75
     1
175
     1
 42
1.0
 92
        0
 66
   257
 43
1.0
 76
     1
 77
     6
 78
     2
 67
     7
 79
     5
170
     0
171
     0
290
     0
174
     0
 93
        1
 44
0.0
173
     0
291
     0
 45
0.0
1001
ACAD
1000
AcDbSavedByObjectVersion
1070
     0
  0
VISUALSTYLE
  5
31
102
{ACAD_REACTORS
330
2A
102
}
330
2A
100
AcDbVisualStyle
  2
3D Hidden
 70
     6
 71
     1
 72
     2
 73
     2
 90
        0
 40
-0.6
 41
-30.0
 62
     5
 63
     7
 74
     2
 91
        2
 64
     7
 65
   257
 75
     2
175
     1
 42
40.0
 92
        0
 66
   257
 43
1.0
 76
     1
 77
     6
 78
     2
 67
     7
 79
     3
170
     0
171
     0
290
     0
174
     0
 93
        1
 44
0.0
173
     0
291
     0
 45
0.0
1001
ACAD
1000
AcDbSavedByObjectVersion
1070
     0
  0
VISUALSTYLE
  5
32
102
{ACAD_REACTORS
330
2A
102
}
330
2A
100
AcDbVisualStyle
  2
Basic
 70
     7
 71
     1
 72
     0
 73
     1
 90
        0
 40
-0.6
 41
-30.0
 62
     5
 63
     7
 74
     0
 91
        4
 64
     7
 65
   257
 75
     1
175
     1
 42
1.0
 92
        8
 66
     7
 43
1.0
 76
     1
 77
     6
 78
     2
 67
     7
 79
     5
170
     0
171
     0
290
     0
174
     0
 93
        1
 44
0.0
173
     0
291
     1
 45
0.0
1001
ACAD
1000
AcDbSavedByObjectVersion
1070
     0
  0
VISUALSTYLE
  5
36
102
{ACAD_REACTORS
330
2A
102
}
330
2A
100
AcDbVisualStyle
  2
Brighten
 70
    12
 71
     2
 72
     2
 73
     0
 90
        0
 40
-0.6
 41
-30.0
 62
     5
 63
     7
 74
     1
 91
        4
 64
     7
 65
   257
 75
     1
175
     1
 42
1.0
 92
        8
 66
     7
 43
1.0
 76
     1
 77
     6
 78
     2
 67
     7
 79
     5
170
     0
171
     0
290
     0
174
     0
 93
        1
 44
50.0
173
     0
291
     1
 45
0.0
1001
ACAD
1000
AcDbSavedByObjectVersion
1070
     0
  0
VISUALSTYLE
  5
3A
102
{ACAD_REACTORS
330
2A
102
}
330
2A
100
AcDbVisualStyle
  2
ColorChange
 70
    16
 71
     2
 72
     2
 73
     3
 90
        0
 40
-0.6
 41
-30.0
 62
     5
 63
     8
 74
     1
 91
        4
 64
     7
 65
   257
 75
     1
175
     1
 42
1.0
 92
        8
 66
     8
 43
1.0
 76
     1
 77
     6
 78
     2
 67
     7
 79
     5
170
     0
171
     0
290
     0
174
     0
 93
        1
 44
0.0
173
     0
291
     1
 45
0.0
1001
ACAD
1000
AcDbSavedByObjectVersion
1070
     0
  0
VISUALSTYLE
  5
34
102
{ACAD_REACTORS
330
2A
102
}
330
2A
100
AcDbVisualStyle
  2
Conceptual
 70
     9
 71
     3
 72
     2
 73
     0
 90
        0
 40
-0.6
 41
-30.0
 62
     5
 63
     7
 74
     2
 91
        2
 64
     7
 65
   257
 75
     1
175
     1
 42
40.0
 92
        8
 66
     7
 43
1.0
 76
     1
 77
     6
 78
     2
 67
     7
 79
     3
170
     0
171
     0
290
     0
174
     0
 93
        1
 44
0.0
173
     0
291
     0
 45
0.0
1001
ACAD
1000
AcDbSavedByObjectVersion
1070
     0
  0
VISUALSTYLE
  5
35
102
{ACAD_REACTORS
330
2A
102
}
330
2A
100
AcDbVisualStyle
  2
Dim
 70
    11
 71
     2
 72
     2
 73
     0
 90
        0
 40
-0.6
 41
-30.0
 62
     5
 63
     7
 74
     1
 91
        4
 64
     7
 65
   257
 75
     1
175
     1
 42
1.0
 92
        8
 66
     7
 43
1.0
 76
     1
 77
     6
 78
     2
 67
     7
 79
     5
170
     0
171
     0
290
     0
174
     0
 93
        1
 44
-50.0
173
     0
291
     1
 45
0.0
1001
ACAD
1000
AcDbSavedByObjectVersion
1070
     0
  0
VISUALSTYLE
  5
39
102
{ACAD_REACTORS
330
2A
102
}
330
2A
100
AcDbVisualStyle
  2
Facepattern
 70
    15
 71
     2
 72
     2
 73
     0
 90
        0
 40
-0.6
 41
-30.0
 62
     5
 63
     7
 74
     1
 91
        4
 64
     7
 65
   257
 75
     1
175
     1
 42
1.0
 92
        8
 66
     7
 43
1.0
 76
     1
 77
     6
 78
     2
 67
     7
 79
     5
170
     0
171
     0
290
     0
174
     0
 93
        1
 44
0.0
173
     0
291
     1
 45
0.0
1001
ACAD
1000
AcDbSavedByObjectVersion
1070
     0
  0
VISUALSTYLE
  5
2B
102
{ACAD_REACTORS
330
2A
102
}
330
2A
100
AcDbVisualStyle
  2
Flat
 70
     0
 71
     2
 72
     1
 73
     1
 90
        2
 40
-0.6
 41
30.0
 62
     5
 63
     7
 74
     0
 91
        4
 64
     7
 65
   257
 75
     1
175
     1
 42
1.0
 92
        8
 66
     7
 43
1.0
 76
     1
 77
     6
 78
     2
 67
     7
 79
     5
170
     0
171
     0
290
     0
174
     0
 93
       13
 44
0.0
173
     0
291
     1
 45
0.0
1001
ACAD
1000
AcDbSavedByObjectVersion
1070
     0
  0
VISUALSTYLE
  5
2C
102
{ACAD_REACTORS
330
2A
102
}
330
2A
100
AcDbVisualStyle
  2
FlatWithEdges
 70
     1
 71
     2
 72
     1
 73
     1
 90
        2
 40
-0.6
 41
30.0
 62
     5
 63
     7
 74
     1
 91
        4
 64
     7
 65
   257
 75
     1
175
     1
 42
1.0
 92
        0
 66
   257
 43
1.0
 76
     1
 77
     6
 78
     2
 67
     7
 79
     5
170
     0
171
     0
290
     0
174
     0
 93
       13
 44
0.0
173
     0
291
     1
 45
0.0
1001
ACAD
1000
AcDbSavedByObjectVersion
1070
     0
  0
VISUALSTYLE
  5
2D
102
{ACAD_REACTORS
330
2A
102
}
330
2A
100
AcDbVisualStyle
  2
Gouraud
 70
     2
 71
     2
 72
     2
 73
     1
 90
        2
 40
-0.6
 41
30.0
 62
     5
 63
     7
 74
     0
 91
        4
 64
     7
 65
   257
 75
     1
175
     1
 42
1.0
 92
        0
 66
     7
 43
1.0
 76
     1
 77
     6
 78
     2
 67
     7
 79
     5
170
     0
171
     0
290
     0
174
     0
 93
       13
 44
0.0
173
     0
291
     1
 45
0.0
1001
ACAD
1000
AcDbSavedByObjectVersion
1070
     0
  0
VISUALSTYLE
  5
2E
102
{ACAD_REACTORS
330
2A
102
}
330
2A
100
AcDbVisualStyle
  2
GouraudWithEdges
 70
     3
 71
     2
 72
     2
 73
     1
 90
        2
 40
-0.6
 41
30.0
 62
     5
 63
     7
 74
     1
 91
        4
 64
     7
 65
   257
 75
     1
175
     1
 42
1.0
 92
        0
 66
   257
 43
1.0
 76
     1
 77
     6
 78
     2
 67
     7
 79
     5
170
     0
171
     0
290
     0
174
     0
 93
       13
 44
0.0
173
     0
291
     1
 45
0.0
1001
ACAD
1000
AcDbSavedByObjectVersion
1070
     0
  0
VISUALSTYLE
  5
38
102
{ACAD_REACTORS
330
2A
102
}
330
2A
100
AcDbVisualStyle
  2
Linepattern
 70
    14
 71
     2
 72
     2
 73
     0
 90
        0
 40
-0.6
 41
-30.0
 62
     5
 63
     7
 74
     1
 91
        4
 64
     7
 65
   257
 75
     7
175
     7
 42
1.0
 92
        8
 66
     7
 43
1.0
 76
     1
 77
     6
 78
     2
 67
     7
 79
     5
170
     0
171
     0
290
     0
174
     0
 93
        1
 44
0.0
173
     0
291
     1
 45
0.0
1001
ACAD
1000
AcDbSavedByObjectVersion
1070
     0
  0
VISUALSTYLE
  5
33
102
{ACAD_REACTORS
330
2A
102
}
330
2A
100
AcDbVisualStyle
  2
Realistic
 70
     8
 71
     2
 72
     2
 73
     0
 90
        0
 40
-0.6
 41
-30.0
 62
     5
 63
     7
 74
     1
 91
        0
 64
     7
 65
   257
 75
     1
175
     1
 42
1.0
 92
        8
 66
     8
 43
1.0
 76
     1
 77
     6
 78
     2
 67
     7
 79
     5
170
     0
171
     0
290
     0
174
     0
 93
       13
 44
0.0
173
     0
291
     0
 45
0.0
1001
ACAD
1000
AcDbSavedByObjectVersion
1070
     0
  0
VISUALSTYLE
  5
37
102
{ACAD_REACTORS
330
2A
102
}
330
2A
100
AcDbVisualStyle
  2
Thicken
 70
    13
 71
     2
 72
     2
 73
     0
 90
        0
 40
-0.6
 41
-30.0
 62
     5
 63
     7
 74
     1
 91
        4
 64
     7
 65
   257
 75
     1
175
     1
 42
1.0
 92
       12
 66
     7
 43
1.0
 76
     1
 77
     6
 78
     2
 67
     7
 79
     5
170
     0
171
     0
290
     0
174
     0
 93
        1
 44
0.0
173
     0
291
     1
 45
0.0
1001
ACAD
1000
AcDbSavedByObjectVersion
1070
     0
  0
ENDSEC
  0
EOF
